Крестный отец табулатура для гитары – Как играть «Крестный отец» на гитаре. Разбор мелодии, табы и ноты для начинающих.

Песни из кино и мультфильмов

Первая часть:
1----0--3--2--0--3--0--2--0-----------------------0|---0--3--2--0--3--0--2--0-------|
2--0-------------------------1--1/3--0-----0-------|-0-------------------------0----|
3---------------------------------------0------0---|---------------------1--------3-|
4--------------------------------------------------|--------------------------------|
5----------------------0---------------------------|--------------------------------|
6----------0-------------------------0-------------|---------0----------------------|

Am
1--------------0--------0--2------------------|----0---------------------------------
2--------1-----------1-----------1-----------1|-4--------0--------------3--1--0--3--1
3--2--------2-----2-----------2-----2-----2---|-------0-----0--------0---------------
4-----2--------------------------------2------|----------------2--2------------------
5--0-----------------------0------------------|----------------------------0---------
6---------------------------------------------|----0---------------------------------

                             Вторая часть:     Dm
1---------------------------|-0--0--------------0--2--0---|--------------------------
2--1--0--0-----------0------|-------4--3-----3-----------3|-1--0-----0--------0--3--0
3-----------------0-----0---|-------------2---------------|-------0-----0------------
4--1--------1--2-----------2|----------0------------------|----------------0---------
5---------------------------|-----------------------------|--------------------------
6--------------0------------|-----------------------------|----3---------------------

Fmaj                     B7 (без мизинца)
1-----------------------|------------------   Играем до конца, потом повтор до 2-й части
2-------------1-----1---|-0-----0----------
3-2-----2--------2-----3|----2-----2-------
4-3--3-----3------------|-------------1----
5-----------------------|-2----------------
6-----------------------|------------------

amdm.ru

Из кинофильмов — Музыка из к/ф «Крестный отец». Текст песни и аккорды в ля миноре (Am) для гитары и укулеле

Песня Из кинофильмов «Музыка из к/ф «Крестный отец»» с аккордами и аппликатурами для гитары и укулеле.

При клике на аккорд он зазвучит! Настройки звукоизвлечения и темпа — ниже в караоке-плеере.

ПЕРВАЯ ЧАСТЬ
1----0--3--2--0--3--0--2--0-----------------------0|---0--3--2--0--3--0--2--0-------|
2--0-------------------------1--1/3--0-----0-------|-0-------------------------0----|
3---------------------------------------0------0---|---------------------1--------3-|
4--------------------------------------------------|--------------------------------|
5----------------------0---------------------------|--------------------------------|
6----------0-------------------------0-------------|---------0----------------------|
Am
1--------------0--------0--2------------------|----0---------------------------------
2--------1-----------1-----------1-----------1|-4--------0--------------3--1--0--3--1
3--2--------2-----2-----------2-----2-----2---|-------0-----0--------0---------------
4-----2--------------------------------2------|----------------2--2------------------
5--0-----------------------0------------------|----------------------------0---------
6---------------------------------------------|----0---------------------------------
                             ВТ.Ч.     Dm
1---------------------------|-0--0--------------0--2--0---|--------------------------
2--1--0--0-----------0------|-------4--3-----3-----------3|-1--0-----0--------0--3--0
3-----------------0-----0---|-------------2---------------|-------0-----0------------
4--1--------1--2-----------2|----------0------------------|----------------0---------
5---------------------------|-----------------------------|--------------------------
6--------------0------------|-----------------------------|----3---------------------
Fmaj                     H7 (без мизинца)
1-----------------------|------------------   ИГРАЕМ ДО КОНЦА,ПОТОМ ПОВТОР ДО 2 ЧАСТИ
2-------------1-----1---|-0-----0----------
3-2-----2--------2-----3|----2-----2-------
4-3--3-----3------------|-------------1----
5-----------------------|-2----------------
6-----------------------|------------------

Качество подбора: нормальное, просмотров за неделю: 1406, оригинальная тональность: am.

Поделись аккордами скорей

и они к тебе не раз ещё вернутся!

Заметили ошибку? Нажмите сюда

akkordus.ru

ТЕМА ЛЮБВИ аккорды, табулатура, разбор

Музыка под гитару из кино
__
Текст, аккорды, табулатура, разбор
__
Из кинофильма “Крестный отец”

__
__
Музыка Nino Rota
__

__

_                                                   _рекомендуемый рисунок:
(в тональности Em)
_      _

              Em          Am          Em
1-я -----0--3--2--0--3--0--2--0--------------------
2-я --0--------------------------1--3--0-----------
3-я -----------------------------------------------
4-я -----------------------------------------------
5-я -----------------------0---------------2-------
6-я -----------0-----------------------0-----3--0--
__
              Em          Em/G         Am
1-я -----0--3--2--0--3--0--2--0---------------------
2-я --0--------------------------0------------------
3-я --------------------------------3--2------------
4-я ----------------------------------------2-------
5-я -----------------------------------0------3--0--
6-я -----------0-----------3------------------------ 
__
               H7                          Em
1-я --------0--2---------------------0-------------
2-я -----1---------------------1--4-----0----------
3-я --2---------------------2-------------0--------
4-я ---------------4-1----------------------2------
5-я -----------2-------2--------------------------
6-я ---------------------------------0------------ 
__
              D#dim        H7          Em
1-я -----------------------------------0----------
2-я --------3--1--0--3--1--1--0--0--4------0------
3-я -----0-----------------------------------0----
4-я --2--------1----------------------------------
5-я -----------------------2----------------------
6-я -----------------------------------0--------0—
__ 
               D                      G
1-я --0--0--------------0--2--0-------------------
2-я --------4--3----------------3--1--0-----------
3-я --------------------------------------0-------
4-я -------------4--0-----------------------0-----
5-я ----------------------------------------------
6-я ----------------------------------3-------3---
__
               F                          H7
1-я -----------------------------------------
2-я --0--3--0-----------------1---0----------
3-я -----------2------------2---2------------
4-я -----------3------------------1----------
5-я ---------------3--0----------------0--2--
6-я --------------------1------------2-------  
__  
              Em          Am          Em
1-я -----0--3--2--0--3--0--2--0-------------------
2-я --0--------------------------1--3--0----------
3-я ----------------------------------------------
4-я ----------------------------------------------
5-я -----------------------0---------------2------
6-я -----------0-----------------------0-----3—0--

                D#dim         H7         Em
1-я --------------------------------------0-----------
2-я ---------3---1--0--3--1---1--0--0--4-----0--------
3-я -----0--------------------------------------0-----
4-я --2----------1---------------------------------2--
5-я --------------------------2-----------------------
6-я --------------------------------------0-----------

__

pesnipodgitaru.ru

Песни из кино и мультфильмов

1. Основная тема (звучит в начале первой части):
|-------------------------------|
|-15----14-15-16-15-15----------|
|------------------------15~~~~-|
|-------------------------------|
|-------------------------------|
|-------------------------------|

|---------------------------------------|
|--15---14-15-16-15-15------------------|
|-----------------------14~~~~----------|
|---------------------------------------|
|---------------------------------------|
|---------------------------------------|

|-------------13------------------|
|-15~~~-14-15----15-14---17--15---|
|---------------------------------|
|---------------------------------|
|---------------------------------|
|---------------------------------|

|----------------------------------------|
|--------------14------------------------|
|--15--14--15-------15---14~~~~~---------|
|----------------------------------------|
|----------------------------------------|
|----------------------------------------|

2.Сицилия:
|----10-13-12-10-13-10-12-10----------|
|-10-------------------------11-13-10-|
|-------------------------------------|
|-------------------------------------|
|-------------------------------------|
|-------------------------------------|
                             
|----10-13-12-10-13-10-12-10----------|
|-10-------------------------/10-9-8--|
|-------------------------------------|
|-------------------------------------|
|-------------------------------------|
|-------------------------------------|
  
|-----------/-------------|
|----6-9--12----6--9-10---|
|-/7----------7-----------|
|-------------------------|
|-------------------------|
|-------------------------|
              
|---------------------------------------|
|--------13-11-10-13-11-11-10-10--------|
|-----10--------------------------------|
|-/12---------------------------11-12---|
|---------------------------------------|
|---------------------------------------|

|-10-10-9-8-10/12-10---------|
|--------------------11-10---|
|----------------------------|
|----------------------------|
|----------------------------|
|----------------------------|

|---------------------------------10--|
|--10-13-10-8----8-11-9-10-----10-----|
|-------------------------------------|
|-------------------------------------|
|-------------------------------------|
|-------------------------------------|

amdm.ru

Аккорды Nino Rota — Godfather Theme (табулатура), табы, текст песни | Аккорды Godfather Theme (табулатура)

Главная > Аккорды > N > Nino Rota

Подбор прислал: gitaristu.ru

 Q=70
 4/4
  Gtr I
|------------|---0-3-0-2-0-----|------------------|
|--------5-8-|-7-------1---1-3-|-0-------0---5-8--|
|------4-----|---------2-------|---0---0---4------|
|------------|-----------------|-----2------------|
|------------|-----------------|------------------|
|------------|-0-------0-------|-0----------------|


|---0-3-0-2-0-----|-----------------|-----------------|----------0-------|
|-7-------0---0---|---------------4-|-7-------7-------|---0----0-------3-|
|---------0-----0-|-2---------2s5---|---5---5-----5s8-|-9------------0---|
|-----------------|---2---2---------|-----7-----7-----|------------2-----|
|-----------------|-0---3---0-------|-0---------------|-----10-----------|
|-0-------3-------|-----------------|-----------------|-0----------------|


|-----------------|------------------------|-------0-2-0h3p0------|
|-1-0-3-1-1-0-0---|-----------4b5-4pb5r(4)-|-3---------------1----|
|---------2-------|------------------------|---5---------------2--|
|---------------1-|-2----------------------|-----4---0------------|
|-2-------2-------|---2---2----------------|-5--------------------|
|-----------------|-0---3---0--------------|----------------------|


|-----------------|-----------------|-----------------|
|-0-------0-0-3-0-|-------------1---|-------------5-8-|
|---0---0---------|-2-------2-2---3-|-4---------4-----|
|-----0-----------|---3---3---------|---4---4---------|
|-----------------|-----3-----------|-----6-----------|
|-3---------------|-1---------------|---------7-------|


|---0-3-0-2-0-----|-----------------|---0-3-0-2-0-----|-----------------|
|-7-------1---1-3-|-0-------0---5-8-|-7-------0---0---|---------------4-|
|---------2-------|---0---0---4-----|---------0-----0-|-2---------2-5---|
|-----------------|-----2-----------|-----------------|---2---2---------|
|-----------------|-----------------|-----------------|-0---3---0-------|
|-0-------0-------|-0---------------|-0-------3-------|-----------------|


|---------------------|---------0-------|
|-7-------7-7-(7)b8-4-|-5-------------3-|
|---5---5-------------|---4---4-----0---|
|-----7---------------|-----5-----2-----|
|-0-------------------|-----------------|
|---------------------|-0---------------|


|-----------------|--------------------*|
|-1-0-3-1-1-0-0---|--------------------*|
|---------2-------|--------------------*|
|---------------1-|-2------------------*|
|-2-------2-------|---2---2---(2)--(2)-*|
|-----------------|-0---3---0----------*|

 This wonderfull song is very tricky, but you will teach it fast (:

Расскажи друзьям!

Популярное на этой неделе:

www.gitaristu.ru

Аккорды Раное — Саундтреки — Godfather main (табулатура), табы, текст песни | Аккорды Godfather main (табулатура) — Раное

Главная > Аккорды > M > Раное — Саундтреки

Подбор прислал: gitaristu.ru



#This file is the author's own work and represents their interpretation of the #
#song. You may only use this file for private study, scholarship, or research. #
#------------------------------------------------------------------------------#

Date: Wed, 27 Nov 1996 09:23:44 -0500 (EST)
From: Magenta 
Subject: TAB:  Themes from The Godfather, composed by Nino Rota


Hi,

My first time doing this.

I notice that under miscellaneous artists there was already another file
for The Godfather Theme.  I'd tried it out on guitar, but it didn't sound
entirely right -- it was in a much lower key, it seemed.  Besides, the
tune that was there was actually Love Theme from The Godfather, not the
most famous Title Theme.

The following tabs are from my own listening to the 1972 soundtrack (on
MCA Records) to The Godfather.  I believe they are accurate.  Since I'd
used an acoustic guitar, effects didn't apply, although I noticed that the
music would sound better if notes were dragged from one to another, and
also easier to play.

Here then are my perceptions of Main Theme from The Godfather and Love
Theme from The Godfather as they appear in that soundtrack album:



1.  Main Theme from The Godfather (The Godfather Waltz)
	composed by Nino Rota

INTRO:
----------------------|-------------------------------
-2---1-2-3---2-2------|--2---1-2-3---2-2--------------
------------------2---|--------------------1----------
----------------------|-------------------------------
----------------------|-------------------------------
----------------------|-------------------------------

---------0--------------|-----------------------------
-2---1-2-----2-1--------|--------2---1----------------
-------------------4-2--|--2-1-2-------1--------------
------------------------|-----------------------------
------------------------|-----------------------------
------------------------|-----------------------------

------------------------|-----------------------------
-2---1-2-3---2-2--------|--2---1-2-3---2-2------------
------------------2-----|-------------------1---------
------------------------|-----------------------------
------------------------|-----------------------------
------------------------|-----------------------------

----------0......------------------------------------
-2---1-2---------------------------------------------
-----------------------------------------------------
-----------------------------------------------------
-----------------------------------------------------
-----------------------------------------------------

BODY:

-----------------------|------------------------------
---4---3-4-5---4-4-----|--4---3-4-5---4-4-------------
--------------------4--|-------------------3----------
-----------------------|------------------------------
-----------------------|------------------------------
-----------------------|------------------------------

---------2--------------|---------------------------
-4---3-4-----4-3---6-4--|--------4---3--------------
------------------------|--4-3-4-------3------------
------------------------|---------------------------
------------------------|---------------------------
------------------------|---------------------------

-----------------------|------------------------------
-----------4-6-7-------|--7-6-4-3---4-4---------------
-3.....5-7-------------|------------------------------
-----------------------|------------------------------
-----------------------|------------------------------
-----------------------|------------------------------

(with this part where the 4-5-4-3 happens on the 2nd string, I just
picked the string and shifted the fingers instead of picking each time.
Sounded more natural.)

-----------------------------------------------------
-4-3---4-5-4-3---4-5-4-3---4-5-4-2-------------------
-----------------------------------4-3-1-0---1-3-----
-----------------------------------------------------
-----------------------------------------------------
-----------------------------------------------------

-----------------------------------------------------
-4-3---4-5-4-3---4-5-4-3---4-7-6-4-2-1---------------
---------------------------------------3-2---3-3-----
-----------------------------------------------------
-----------------------------------------------------
-----------------------------------------------------

-4---3-4-5---4-4----|--4---3-4-5---4-4----------------
-----------------5--|------------------4--------------
--------------------|---------------------------------
--------------------|---------------------------------
--------------------|---------------------------------
--------------------|---------------------------------

-4---3-4-7---4-3---7-4--|--------4---3----------------
------------------------|--5-4-5-------4--------------
------------------------|-----------------------------
------------------------|-----------------------------
------------------------|-----------------------------
------------------------|-----------------------------

------------3-4-6-7----|--7-6-4-3---4-4---------------
-4........6------------|------------------------------
-----------------------|------------------------------
-----------------------|------------------------------
-----------------------|------------------------------
-----------------------|------------------------------

(end.)


2.  Love Theme from The Godfather
	composed by Nino Rota
	This piece is repetitive so I generally break it into four parts,
	with a short interlude which appears twice throughout the piece.

PART ONE
----9--12--11--9--12--9--11--9-----------------------
-9------------------------------10--12--9------------
-----------------------------------------------------
-----------------------------------------------------
-----------------------------------------------------
-----------------------------------------------------

----9--12--11--9--12--9--11--9-----------------------
-9------------------------------9--8--7--------------
-----------------------------------------------------
-----------------------------------------------------
-----------------------------------------------------
-----------------------------------------------------

--------8--11......-|---------8--9--------------------
-7--10--------------|--7--10--------------------------
--------------------|---------------------------------
--------------------|---------------------------------
--------------------|---------------------------------
--------------------|---------------------------------

-----------------------------------------------------
--------12--10--9--12--10--10--9--9------------------
-----9-----------------------------------------------
-11----------------------------------10--11----------
-----------------------------------------------------
-----------------------------------------------------

INTERLUDE
-9--9--8--7-----|--11--11--9--------------------------
----------------|-------------10--9-------------------
----------------|-------------------------------------
----------------|-------------------------------------
----------------|-------------------------------------
----------------|-------------------------------------

----------------|-------------------------------------
-9--12--9--7----|--7--10--8--9------------------------
----------------|-------------------------------------
----------------|-------------------------------------
----------------|-------------------------------------
----------------|-------------------------------------

PART TWO
----9--12--11--9--12--9--11--9-----------------------
-9------------------------------10--12--9------------
-----------------------------------------------------
-----------------------------------------------------
-----------------------------------------------------
-----------------------------------------------------

----9--12--11--9--12--9--11--9-----------------------
-9------------------------------9--8--7--------------
-----------------------------------------------------
-----------------------------------------------------
-----------------------------------------------------
-----------------------------------------------------

--------8--11-------|---------8--9--------------------
-7--10--------------|--7--10--------------------------
--------------------|---------------------------------
--------------------|---------------------------------
--------------------|---------------------------------
--------------------|---------------------------------

-------------------------------------8--9-------------
--------12--10--9--12--10--10--9--9-------------------
-----9------------------------------------------------
-11---------------------------------------------------
------------------------------------------------------
------------------------------------------------------

(Now play the INTERLUDE again, then add a 12 on the 2nd string onto:)

PART THREE
-----12--15--14--12--15--12--14--12------------------
-12----------------------------------13--15--12------
-----------------------------------------------------
-----------------------------------------------------
-----------------------------------------------------
-----------------------------------------------------

-----12--15--14--12--15--12--14--12------------------
-12----------------------------------12--11--10------
-----------------------------------------------------
-----------------------------------------------------
-----------------------------------------------------
-----------------------------------------------------

---------11--14----|----------11--12------------------
-10--13------------|--10--12--------------------------
-------------------|----------------------------------
-------------------|----------------------------------
-------------------|----------------------------------
-------------------|----------------------------------

------------------------------------------------------
---------15--13--12--15--13--13--12--12--11--12-------
-----12-----------------------------------------------
-14---------------------------------------------------
------------------------------------------------------
------------------------------------------------------

(No INTERLUDE.  Move on to:)

FOURTH SECTION
-----12--15--14--12--15--12--14--12-------------------
-12----------------------------------13--15--12-------
------------------------------------------------------
------------------------------------------------------
------------------------------------------------------
------------------------------------------------------

-----12--15--14--12--15--12--14--12-------------------
-12----------------------------------12--11--10-------
------------------------------------------------------
------------------------------------------------------
------------------------------------------------------
------------------------------------------------------

---------11--14------|----------11--12-----------------
-10--13--------------|--10--12-------------------------
---------------------|---------------------------------
---------------------|---------------------------------
---------------------|---------------------------------
---------------------|---------------------------------

-----------------------------------------11--12-------
---------15--13--12--15--13--13--12--12---------------
-----12-----------------------------------------------
-14---------------------------------------------------
------------------------------------------------------
------------------------------------------------------

(ends.)


Расскажи друзьям!

Популярное на этой неделе:

www.gitaristu.ru

Мелодия из фильма «Крёстный отец» +tb — Ноты+Табы — «ЛЮБИМЫЕ ГИТАРНЫЕ АРАНЖИРОВКИ»

А где мне взять такую песню+tb [4]

А где мне взять такую песню-Аранж.Елютин

А напоследок я скажу+tb [6]

А напоследок я скажу-Елютин

А цыган идёт+tb [12]
А я еду за туманом +tb [1]

Ю.Кукин

Александра+tb [4]

из кф «Москва слезам не верит»

Алёша [0]

Эдуард Колмановский

Аллеманда +tb [1]

О.Копенков

Ариетта +tb [2]
Ах ты, зимушка — зима! +tb [1]
Ах ты, матушка, голова болит +tb [2]

Русская народная песня

Ах ты степь широкая +tb [3]
Бабочки на снегу +tb [2]

Р.Паулс

Барыня +tb [1]
Беловежская пуща +tb [2]
Белой акации гроздья душистые+tb [11]

Романс из к\ф «Дни Турбиных» с ТАБами

Белоруссия +tb [1]

Муз.:А.Пахмутова

Белые розы + tb [3]

Ласковый Май

Берёзовый сок +tb [1]

И Родина щедро поила меня

Бимбо +tb [3]
Благовест+tb [4]
Босса-Нова +tb [1]
Брызги шампанского +tb [6]

Танго

Бывают солнечные дни+tb [2]

О.Копенков

В горнице +tb [2]
В землянке +tb [1]
В лесу родилась ёлочка +tb [4]
В лунном сиянии +tb [3]

Исполнение А.Верховцев: http://youtu.be/eJPSawuQtaI

В моей жизни In My Life +tb [1]

The Beatles

В низенькой светёлке +tb [2]
В парке Чаир [2]
Вальс №6 +tb [1]

Б.Долженко

Вальс А.Иванов-Крамской +tb [2]
Вальс бостон +tb [6]

Розенбаум

Вальс «Дунайские волны» +tb [4]
Вальс из к/ф «Мой ласковый и нежный зверь» +tb [7]
Вальс из к/ф «На семи ветрах» +tb [3]

К_Молчанов

Вальс из к/ф «Под небом Парижа» +tb [6]
Вальс «На сопках Маньчжурии» +tb [7]

Шатров

Вальс «Оборванные струны» +tb [2]

Гапон

Вальс «Осенние листья» +tb [1]
Вальс Ребиков +tb [2]

из оперы «Ёлка»

Вальс цветов +tb [2]

Старинный русский вальс

Васильки +tb [1]
Ваше благородие +tb [3]

из фильма «Белое солнце пустыни»

Вдоль да по речке +tb [1]
Вернись в Сорренто +tb [1]

Э.Куртис

Весёлое эхо + tb [4]
Вечер на рейде [1]
Вечерний звон +tb [1]

Русская народная песня

Вечная любовь -Une Vie D’Amour+tb [3]

Муз.:Жорж Гарванец — Легран

Взгляд твоих чёрных очей +tb [4]

Музыка Н.Зубова Обр.С.Орехова

Виноградная косточка +tb [1]

Исполнение А.Верховцева: http://youtu.be/G7Rarv33cEY

Во кузнице +tb [2]
Времена года — О.Копенков +tb [4]

Сюита

Вы шумите, берёзы+tb [2]

Муз.: Э.Ханок

Выхожу один я на дорогу +tb [7]

Исполнение А.Верховцева: http://youtu.be/Lf9bJ4-0ieE

Гандзя +tb [1]

Украинская народная песня

Где же вы теперь, друзья-однополчане? [1]

Василий Соловьёв-Седой

Гимн восходящего солнца +tb [2]
Гляжу в озёра синие +tb [1]

Из т/ф «Тени исчезают в полдень»

Гори гори моя звезда +tb [7]
Город, которого нет +tb [2]

из фильма «Бандитский Петербург»

Городок +tb [2]

Из сериала «Городок»

Грёзы +tb [3]

А.Иванов-Крамской

Грустный напев +tb [1]
Грустная песня +tb [1]

Иванов-Крамской

Гудбай Америка +tb [1]

Наутилус Помпилиус

Двадцать лет спустя +tb [1]
Две гитары +tb [9]
День Победы +tb [1]
Для неё любовь — забава +tb [1]

из фильма «Девушка без адреса»

Дождь Rain Поль Мориа [1]
Долгая дорога в дюнах +tb [3]

Муз.Р.Паулс

Дорога +tb [0]

Из кф Николо Пагинини Дорога без конца

Дорога -Любэ +tb [2]

группа — Любэ

Дорогой длинною +tb [1]

Романс

Дремлют плакучие ивы +tb [3]
Дружба +tb [1]

О.Копенков

Друзьям +tb [1]

О бедном гусаре замолвите слово

Душа сердца +tb [2]
Дым сигарет с ментолом +tb [2]

Муз.гр.Нэнси

Елисейские поля +tb [1]

Дж.Дассен

Если б не было тебя +tb [4]

Дж.Дассен

Есть только миг +tb [1]

Муз.А.Зацепин

Ехали цыгане +tb [5]
Живёт моя отрада +tb [1]
Журавли +tb [2]

Ян Френкель

Зайка +tb [1]

А.Иванов-Крамской

Зачем я влюбился +tb [5]
Звёздочка моя ясная +tb [2]

ВИА «Цветы»

Здравствуй +tb [1]

Джо Дассен

Зелень лета +tb [1]

Уэбстер_Темкин Обраб.:Альмейда

Ивушка +tb [1]
Ирландский танец +tb [1]
Испанский танц «Сальвадор» +tb [3]
К Элизе +tb [6]

К Элизе Л.В.Бетховен

Как жаль +tb [0]

Группа «Браво»

Как жизнь без весны +tb [1]

из к/ф «Гардемарины, вперёд»

Как много девушек хороших +tb [3]
Как молоды мы были +tb [3]

Из фильма «Моя любовь на третьем курсе»

Как упоительны в России вечера +tb [4]
Калинка +tb [1]
Калитка (романс) +tb [4]

Исполнение А.Верховцева: http://youtu.be/stlttFlkvzk

Каникулы любви +tb [1]

Ясуси Миягава

Канцона +tb [3]

«Город» из репертуара «Аквариум» Ф.Милано

Караван +tb [1]

Муз.:Б.Прозоровский? Слова Б.Тимофеева

Киевский вальс +tb [2]

Майборода Платон

Клён ты мой опавший +tb [10]

Исполнение А.Верховцева: http://youtu.be/w7TSqRekukQ

Когда весна придёт +tb [2]

Песня из к/ф «Весна на Заречной улице»

Когда цвели сады +tb [1]
Колыбельная +tb [2]

Иванов-Крамской

Конь +tb [2]

Любэ

Коробейники +tb [4]
Крылья мельниц +tb [3]

Легран

Кубинский танец +tb [2]

обр.: А.Митяев с сайта, посвящ.Орехову

Кудрявая рябина [1]

Русская народная песня

Лаванда +tb [1]
Ласковый вечер +tb [1]

Г.Гарнишевская

Лебединое озеро tb [3]
Лейся, песня, на просторе +tb [1]

из к\ф «Семеро смелых»

ЛЕДИ ДЖЕЙН Lady Jane [1]
Летит кондор +tb [7]

мелодия перуанских инков Исполнение Е.Белкова: http://www.youtube.com/watch?v=2yrXiIFEDHk&feature=em-uploademail

Летний дождь +tb [3]

Муз.И.Тальков

Лиловый негр +tb [1]

Муз.А.Вертинского

Лунный вальс +tb [2]
Любимый город +tb [1]

из к\ф «Истребители»

Любо, братцы, любо [1]

Фольклор

Любовь — волшебная страна [4]
Любовь настала +tb [2]

Муз.Р Паулс

Маленькая серенада +tb [1]
Маленький марш +tb [1]

Музыка М.М.Елютина

Маленький принц +tb [3]
Мардяндя +tb [5]

Народная песня венгерских цыган

Мгновения +tb [2]

Из кинофильма «17 мгновений весны»

Мелодия из к\ф «Игрушка» +tb [2]
Мелодия из фильма «Джентльмены удачи» +tb [1]
Мелодия из фильма «Крёстный отец» +tb [11]
Мелодия из фильма «Мужчина и женщина» +tb [3]
Мелодия из кф Цыган +tb [2]
Мелодия из фильма «Эммануэль» +tb [3]
Мелодия листьев и дождя+tb [3]

В.Кузнецов

Мелодия любви +tb [6]

А.Попп

Менуэт +tb [1]

Бах

Менуэт Боккерини +tb [2]
Милая моя +tb [3]

Ю.Визбор

Моё солнышко +tb [3]

Неаполитанская народная мелодия

Монолог дождя +tb [1]

В.Ерзунов

Москва златоглавая +tb [1]
Москвичи [1]

из к\ф «Хочу верить»

Муз.иллюстрации к повести А. С. Пушкина «Метель» +tb [8]
Мурка +tb [2]
Мустанг +tb [2]
Мясоедовская улица +tb [1]
На безымянной высоте +tb [4]

Исполн.Верховцев: https://youtu.be/C6smT2WJPTY

На крылечке твоём +tb [1]

из к\ф «Свадьба с приданным» Исполнение Е.Белкова: http://www.youtube.com/watch?v=2JAwHeMZOVA

На поле танки грохотали +tb [1]
Над заливом +tb [1]
Над окошком месяц +tb [3]
Напрасные слова +tb [6]
Начинаются дни золотые +tb [2]
Не жалею, не зову, не плачу +tb [6]
Не отрекаются любя +tb [1]
Нежность +tb [1]

из кф «Три тополя на Плющихе»

Не брани меня, родная +tb [5]
Нiч яка мiсячна +tb [5]

Украинская народная песня

Но как на свете без любви прожить +tb [3]

Песня о любви из кф «Простая история»

Ноктюрн+tb [2]

Арно Бабаджанян

Ночь светла [16]

Исполнение А.Верховцева: http://youtu.be/0px2rQGqDA0

Ой цветёт калина +tb [3]
Огней так много золотых +tb [1]

из кф «Дело было в Пеньково»

Огонёк +tb [1]

Песня военных лет

Одинокий пастух+tb [2]

The Lonely Shepherd (Одинокий пастух) James Last (Джеймс Ласт)

Одиночество О.Копенков +tb [1]

Исполнение Е.Белкова: http://www.youtube.com/watch?v=sJZVl7CZTJ4&feature=em-uploademail

«Осень» ДДТ [3]
Осень прозрачное утро +tb [1]

Исполнение А Верховцев: http://youtu.be/j1EaQednURs

Отговорила роща золотая+tb [3]

На стихи Есенина

Отдавали молоду +tb [2]
Очарована-околдована +tb [4]

Исполнение Е.Белков: http://www.youtube.com/watch?v=M1vAKvI-LpM

Очи чёрные +tb [12]
Пастурелла +tb [1]
Песнь ямщика+tb [3]
Песня верных друзей +tb [1]

из кф «Верные друзья»

Песня о далёкой Родине +tb [3]

из фильма «17 мгновений весны»

Песня о друге +tb [1]

В.Высоцкий

Песня о первой любви +tb [1]

Из кф Попутного ветра «Синяя птица»

Песня о Тбилиси +tb [2]
Песня про зайцев +tb [1]
Письмо матери+tb [4]

На стихи Есенина

Плот [1]

Ю.Лоза

По Дону гуляет казак молодой [1]
Под лаской плюшевого пледа+tb [2]

Из фильма «Жестокий романс»

Под музыку Вивальди +tb [1]

В.Берковский, С.Никитин

Подмосковные вечера +tb [2]

написана для документального фильма «В дни спартакиады», который появился на экранах кинотеатров в 1956 году

Поехал казак на чужбину далёку+tb [1]
Позови меня +tb [2]

Любэ

Полонез М.Огиньский +tb [2]

М.Огиньский

Полька — М.Елютин +tb [2]
Поручик Голицын +tb [2]
Порыв +tb [3]

А.Иванов-Крамской

Последний бой +tb [2]

из к/ф «Освобождение»

Постой паровоз +tb [2]

А.Зацепин

Прелюдия +tb [1]

Иванов-Крамской

Прелюдия №1+tb [1]

Прелюдия №1- муз.М.Елютин

Прелюдия №2-Туманы Лаго-Наки+tb [1]

Муз.: М.Елютин

Прощайте, скалистые горы [1]

Исполн.Верховцев: https://youtu.be/ezIlDIgDGKw

Прощальный вальс-М.Елютин +tb [1]
Прощальный вальс из к\ф «Розыгрыш» +tb [3]
Прощальный романс — М.Елютин +tb [2]
Пряха +tb [2]
Раскинулось море широко [1]

Игра Белкова- http://www.youtube.com/watch?v=TPkqT8nN4TU&feature=em-uploademail

Расцвела под окошком белоснежная вишня +tb [1]
Рио-рита +tb [2]
Романс из к/ф «Мы из будущего» +tb [2]
Романс о Жестоком романсе +tb [1]
Романс «Париж» — М.Елютин +tb [1]
Ромашки спрятались +tb [2]
«Ромео и Джульетта» [2]

Песня Леонардо из к\ф

Русское поле +tb [8]

из фильма «Новые приключения неуловимых»

Русское танго «Журавли» [2]
Свеча +tb [1]

В.Ерзунов

Севастопольский вальс [0]
Семь сорок +tb [1]

Еврейская народная песня

Сентиментальный вальс+tb [2]

Муз.: П.И.Чайковский

«Серенада солнечной долины» [2]

Я знаю, почему из к\ф

Синий платочек +tb [6]

Слова: Галицкий, Максимов, муз.: Е.Петербургский

Сиреневый туман +tb [3]
След дождя +tb [1]

Л.Парфененко

«Служебный роман» [5]
Скажите, девушки.. Р. Фальво +tb [1]
Случайный вальс +tb [3]
Снег кружится +tb [2]
Спят курганы тёмные +tb [2]

Исполнение А.Верховцева: http://youtu.be/2DW5FwPVJb4

Старый клён +tb [1]

из кф «Девчата» исполнение Е.Белков: https://www.youtube.com/watch?v=OS2Afwinh2c

Старый рояль +tb [2]

М.Минков

Стихира +tb [1]

Е.Баев

Сурок (Marmot) [1]

Бетховен

Тайная вечеря The Last Supper [1]

Из рок-оперы «Иисус Христос-суперзвезда»

Там, где клён шумит [2]

Из репертуара ВИА «Синяя птица»

Там за туманами [4]

из репертуара «Любэ»

Танго Дождь идёт +tb [3]
Танго соловья +tb [1]

1940г.

Танец маленьких лебедей+tb [2]

Муз.: П.Чайковский

Танец мотыльков +tb [1]

А.Иванов-Крамской

Твоей улыбки тень +tb [6]

из ф-ма «Пляжная птичка» +ТАБ

Течёт река Волга +tb [1]
Тёмная ночь +tb [2]

Из фильма «Два бойца»

Тёплый вечер (Блюз)-М.Елютин +tb [1]
Тихий вальс-Муз.М.Елютин+tb [1]
Тихо, как при восходе солнца +tb [1]
Тихо всё +tb [3]

Музыка и слова Т.Толстой

То не ветер ветку клонит +tb [4]

Русская народная

Токката+tb [7]

П.Мориа

Только раз-Музыка Б.Фомина +tb [4]
Тонкая рябина [3]

Русская народная песня

Три вздоха отчаяния — Three sighs of despair tb [2]

Исполнение Е.Белкова: http://www.youtube.com/watch?v=VWcCWRaDFG8&feature=em-uploademail

Три года ты мне снилась+tb [2]

Из кинофильма «Большая жизнь»

Ты всё для меня [1]

Муз.неизвестного автора

Ты у меня одна +tb [1]

Визбор

У Чёрного моря +tb [2]

из к/ф «Ликвидация»

Увертюра из кф Дети капитана Гранта +tb [1]
Уральская рябинушка +tb [2]
Утомлённое солнце [2]

Танго Е.Петербургский

Утро любви +tb [3]

мелодия из к\ф «Чёрный Орфей»

Утро туманное [3]

Романс на слова И.С.Тургенева (1843 г.)

Хабанера +tb [1]

П.Роч (испан. habanera, от названия города La Habana — Гавана) — кубин. танец

Хризантемы +tb [12]

романс

Частушки бабушки Марфы +tb [1]
Чардаш +tb [9]

Муз.В.Монти

Чёрное и белое +tb [2]

из к/ф «Большая перемена»

Чёрные брови [1]

Укр.народ.песня

Чёрный ворон +tb [4]

Русская народная песня

Что так сердце растревожено +tb [3]

Из к\ф «Верные друзья» Исполнение Е.Белкова: http://youtu.be/eCNmLqhJrj4

Что такое осень [2]

«ДДТ»

Что ты не пришёл +tb [2]
Шаланды, полные кефали [2]
Шар голубой [1]
Шербургские зонтики — Буду ждать тебя +tb [13]

М.Легран

Цыганочка +tb [4]

народная

Цыганская венгерка +tb [2]
Цыганский наигрыш +tb [1]
Цыганский танец +tb [2]
Экспромт-Елютин+tb [1]

Муз.М.Елютин

Этюд — арпеджио +tb [1]
Этюд — легато +tb [1]
Эх, дороги +tb [3]
Эхо любви [2]

из к/ф «Судьба»

Я в весеннем лесу пил берёзовый сок +tb [3]

Исполн.Верховцев: https://youtu.be/yPQ4ksqOJmM

Я встретил Вас +tb [16]

Романс На слова Ф.Тютчева

Я помню вальса звук прелестный +tb [3]
Я спросил у ясеня из к/ф «Ирония судьбы, или с лёгким паром» [2]
Я тебя никогда не забуду [1]

из советской рок-оперы «Юнона и Авось»

Ямщик не гони лошадей +tb [9]

Исполн.Верховцев: https://youtu.be/cBrZHe7C0Qg

verhov.ucoz.ru

Отправить ответ

avatar
  Подписаться  
Уведомление о