Табы металлика: Nothing else matters на гитаре, Nothing else matters табы и разбор на гитаре

5---------| G|-5-----5---5-------5-5---|-7-----7---7-----------------------| D|-------------------------|-----------------------------------| A|-3---3---------------3---|-5---5-----------------------------| E|-------------------------|-----------------------------------| E|-------12----|-------0-----|-------0-----|-------0-----------| B|-----12--0---|-----0---0---|-----0---0---|-----0---0---------| G|---12------0-|---0-------0-|---0-------0-|---0-------0-------| D|-------------|-------------|-------------|-------------------| A|-------------|-------------|-------------|-------------------| E|-0-----------|-0-----------|-0-----------|-0-----------------| E|-------------7-----------|-------------|-------------7-------| B|-------------8-----------|-----7-----5-|-------------8-------| G|-----------9-------------|-----7-----5-|-----------9---------| D|---------9---------------|---7-----5---|---------9-----------| A|-------7-----------------|-5-----3-----|-------7-------------| E|-0-----------------------|-------------|-0-------------------| E|-------------|-------------7-------|-----5-----------3-----| B|-----7-----5-|-------------8-------|-------7-----------5---| G|-----7-----5-|---------9-----------|---------7-----------5-| D|---7-----5---|-----------9---------|-----7-----------5-----| A|-5-----3-----|-------7-------------|-5-----------3---------| E|-------------|-0-------------------|-----------------------| E|-----3-----------2-------|-------0-----|-------0-----| B|-------3-----------4-----|-----0---0---|-----0---0---| G|---------4-----------2---|---0-------0-|---0-------0-| D|-----5-----------4-------|-------------|-------------| A|-------------2-----------|-------------|-------------| E|-3-----------------------|-0-----------|-0-----------| Main guitar part: E|-------------3-----0-----|-2-----3-----0-----------| B|---------0-----------0---|---------3-------3-------| G|-----0-----------0-----0-|-----------0-------0-----| D|-------------------------|-0-----------------------| A|-------------------------|-------------3-----------| E|-0-----------------------|---------------------3-2-| E|-------------3-----0-----|-2-----------------------| B|---------0-----------0---|-------3-----3-----------| G|-----0-----------0-----0-|---------2-------0-------| D|-------------------------|-0-----------------------| A|-------------------------|-------------3-----------| E|-0-----------------------|---------------------3-2-| E|-------------3-----0-----|-2-----3-----3---------| B|---------0-----------0---|---------3-------3-----| G|-----0-----------0-----0-|-----------0---------0-| D|-------------------------|-0---------------------| A|-------------------------|-------------3---------| E|-0-----------------------|-----------------------| E|---------3---2-----2--|-0-----0-----|-------------0----------| B|---------3---0-----0--|-0---0---0---|---------0-------0------| G|-----0-------2-----2--|---0-------0-|-----0------------------| D|----------------------|-------------|------------------------| A|-------------2-----2--|-------------|------------------------| E|-3--------------------|-0-----------|-0------------------3-2-|
Припев
: guitar part 1 2 3 4 5 6 E|-------------|-2-----2-2-2-3---2-0-0-2-| B|-1-----2-----|-3-----3-3-3-3---3-3-3-3-| G|-0-----2-----|-2-----2-2-2-2---2-2-2-2-| D|-2-----2-----|-0-----0-0-0-0---0-0-0-0-| A|-3-----0-----|-------------------------| E|-------------|-------------------------| E|-------------|-2-----2-2-2-3---2-0-0-2-| B|-1-----2-----|-3-----3-3-3-3---3-3-3-3-| G|-0-----2-----|-2-----2-2-2-2---2-2-2-2-| D|-2-----2-----|-0-----0-0-0-0---0-0-0-0-| A|-3-----0-----|-------------------------| E|-------------|-------------------------| E|-------------|-2-----2-2-2-0-| B|-1-----2-----|-3-----3-3-3-0-| G|-0-----2-----|-2-----2-2-2-0-| D|-2-----2-----|-0-----0-0-0-2-| A|-3-----0-----|-------------2-| E|-------------|-------------0-| Interlude, only one part is notated.
E|-12----14---|-15---17---|-8-----8-----|-----8-----|0-----0---| B|---12----12-|---12---12-|---5-----5---|---5---5---|--1-----1-| G|------------|-----------|-----5-----5-|-5-------5-|----0-----| D|------------|-----------|-------------|-----------|----------| A|------------|-----------|-------------|-----------|----------| E|------------|-----------|-------------|-----------|----------| E|-0-------0---|-0-0---------0-0---------|-------0-----| B|---3-------3-|-----0-----------0-------|-----0---0---| G|-----2-------|---------0-----------0---|---0-------0-| D|-------------|-------------------------|-------------| A|-------------|-------------------------|-------------| E|-------------|-------------------------|-------------| Guitar
solo
: E5 E5(7) | D55C53E5 E5(7) | D55C53E5 E5(7) | D55C53| G53B5(2) | E5BB R V V E|---------------------------|---------------------------------| B|-15------15----------------|---------------------------------| G|-14(16)--14(16)14-12----12-|-11-12-11----11---------12-14-12-| D|---------------------------|----------14----12-14------------| A|---------------------------|---------------------------------| E|---------------------------|---------------------------------|
B
BB R V E|-------12-------12------------------|------------------------| G|----12-------12----15-12----12------|------------14-14-13----| G|-14(16)---14(16)---------15----15-14|-12(14)12---14-14-13-12-| D|------------------------------------|---------14-------------| A|------------------------------------|------------------------| E|------------------------------------|------------------------| S Н P S V E|-/15-14----15-14-17-|-15-14^15^14⁄12----15-14-|--------------| B|--------12----------|----------------12-------|-12-----------| G|--------------------|-------------------------|-----12-14-12-| D|--------------------|-------------------------|--------------| A|--------------------|-------------------------|--------------| E|--------------------|-------------------------|--------------| B R BB R P B E|-------------------------|-12--------------------------| B|-15-------------------12-|-------15-15(17)15^12-15(17)-| G|-14(16)14-12----12-14(16)|-----------------------------| D|-------------14----------|-----------------------------| A|-------------------------|-----------------------------| E|-------------------------|-----------------------------| Н P S Н P E|-----------------|--------| B|-12^15^12⁄⁄⁄⁄⁄⁄7-|-5^7^5--| G|-----------------|--------| D|-----------------|--------| A|-----------------|--------| E|-----------------|--------| The end: E|-0-----0-----|-------0---7-|-7-----------7^0-------| B|-----0---0---|-----0---0---|-----0-----------0-----| G|---0-------0-|---0---------|---------0-----------0-| D|-------------|-------------|-----------------------| A|-------------|-------------|-----------------------| E|-0-----------|-0-----------|-0---------------------| E|---------7---8---7^8^7⁄5--7---5⁄2--0-| B|---------0---0------------0----------| G|-----0-------------------------------| D|-------------------------------------| A|-------------------------------------| E|-0-----------------------------------| EmDC So close no matter how far Couldn't be much more from the heart Forever trusting who we are G Н7 Em And nothing else matters EmDC Never opened my self this way Life is ours, we live it our way All these words I don't just say G Н7 Em And nothing else matters EmD Trust I seek and find in you Every day for us something new Open mind for a different view G Н7 Em And nothing else matters {Начало припева} CADC Never cared for what they do ADC Never cared for what they know ADEm But I know {конец припева} {Повторить первый куплет} {припев} {Повторить первый и второй куплеты} CADC Never cared for what they say ADC Never cared for what they play ADC Never cared for what they do ADC Never cared for what they know ADEm But I know {Повторить первый куплет} Перевод: Ничто Больше Не Имеет Значения Так близко не значит как далеко Не могло бы быть намного больше от сердца Вечно доверяя тем, кто мы есть И ничто больше не имеет значения Я никогда не открывал себя с этой стороны Жизнь - наша, и мы проживаем ее по своему Все эти слова я не просто так говорю И ничто больше не имеет значения Доверие, что я ищу, я нахожу в тебе Каждый день для нас - это что-то новое Открой свой разум для разный точек зрения И ничто больше не имеет значения Важно не то, что они делают Важно не то, что они знают А то, что знаю я Так близко не значит как далеко Не могло бы быть намного больше от сердца Вечно доверяя тем, кто мы есть И ничто больше не имеет значения Важно не то, что они делают Важно не то, что они знают А то, что знаю я Я никогда не открывал себя с этой стороны Жизнь - наша, и мы проживаем ее по своему Все эти слова я говорю не просто так И ничто больше не имеет значения Доверие, что я ищу, я нахожу в тебе Каждый день для нас - это что-то новое Открой свой разум для разный точек зрения И ничто больше не имеет значения Важно не то,, что они говорят Важно не то, в какие игры они играют Важно не то, что они делаютВажно не то, что они знают И я знаю Так близко не значит как далеко Не могло бы быть намного больше от сердца Вечно доверяя тем, кто мы есть И ничто больше не имеет значения

Содержание

Как играть на гитаре Nothing else matters

Искать гитариста, который не пытался играть на гитаре на гитаре Nothing else matters равносильно поиску иголке в стоге сена. Конечно найти таких можно, но их количество среди тех, кто интересуется гитарой весьма серьезно, будет затруднительным.
Даже автор этих строк услышав впервые эту песню для себя сделал вывод, что песня скучная и не интересная. Но когда с толкнулся с фактом, что эту песню исполняет такое количество его знакомых музыкантов, призадумался над такой популярностью песни в среде гитаристов. Но как обычно в таких случаях, причины этого лежат на поверхности и сильно глубоко копать в своих поисках не стоит.
На момент выхода песни, Металлика была на пике своей популярности. А учитывая, что группа была одним из основателей тяжелого направления музыки треш-метал, то интерес к группе был в двойне и на тот момент выход нового альбома ждали с большим интересом, ожидая что-то новое и необычное. Nothing else matters стала одной из необычных песен альбома чем и завоевала огромную популярность среди слушателей и музыкантов.

Metallica — Nothing Else Matters

Для большинства гитаристов эта песня со своей простотой и мелодичностью стала первым шагом в освоении новых высот гитарного мастерства. Уже давно ходит байка о том, как Хетфилд сочинил эту песню, разговаривая по телефону со своей знакомой девушкой с гитарой в руках. Так как одна рука была занята телефоном, второй он наигрывал перебор с открытыми струнами, что мы отчетливо и слышим в начале вступления песни. Да и вся партия аккомпанемента на акустической гитаре достаточно проста для освоения большинству начинающих гитаристов имеющих самую заурядную гитару и терпение для изучения. Собственно это и стало толчком появления множества кавер-версий песни различных исполнителей в ряду которых оказались Deep Purple, Шакира и многие другие.

Как мы видим на рисунке с табами вступление играется достаточно просто и любой гитарист достаточно легко изучит его. А менее опытные гитаристы научатся вести мелодическую линию в партии аккомпанемента украшая все это флажолетами и другими приемами звукоизвлечения.

Другой особенностью песни является соло на гитаре исполняемое Хетфилдом, которое тоже отличается простотой для освоения и своей мелодичностью. И те гитаристы, которые только начинают осваивать азы соло гитары в стиле тяжелого метала, могут его выучить для пополнения своего музыкального багажа. Здесь они найдут для себя часто встречающиеся в различных гитарных соло фразы играемые в пентатонике тональности ми минор в сопровождении бендов и вибрато украшающие и наполняющие мелодичностью соло. Ниже на рисунке представлены табы для гитары с партией соло в песне.

По ссылке ниже можно полностью скачать табы для гитары с песней Nothing Else Matters.

скачать табы для гитары

Что еще почитать

One — Metallica — Аккорды и табулатуры песен для гитары, GTP-архив, Видеоуроки

One

1)------------------------------------------------------------------------
2)------------------------------------------------------------------------
3)-------------------------------------------------------------0----------
4)-----4-----0--------4-----0--------4-----0--------4-----0---------------
5)--2-----2-----------------------2-----2---------------------------------
6)-----------------3-----3-----------------------3-----3------------------

1)------------------------------------------------------------------------
2)------------------------------------------------------------------------
3)-(0)--------------------------------------------------------------------
4)-----4-----0--------4-----0--------4-----0------------------------------
5)--2-----2--------0-----0--------------------------2-----2---------------
6)--------------------------------3-----3--------0-----2------------------

1)------------------------------------------------------------------------
2)------------------------------------------------------------------------
3)-----------------------------------------------------------0------------
4)-----4-----0--------4-----0--------4-----0--------4-----0---------------
5)--2-----2-----------------------2-----2---------------------------------
6)-----------------3-----3-----------------------3-----3------------------

1)------------------------------------------------------------------------
2)------------------------------------------------------------------------
3)------------------------------------------------------------------------
4)-----4-----0--------4-----0--------4-----0------------------------------
5)--2-----2--------0-----0--------------------------2-----2---------------
6)--------------------------------3-----3--------0-----2------------------

1)------------------------------------------------------------------------
2)------------------------------------------------------------------------
3)------------------------------------------------------------------------
4)---------------------------------4-----0--0--4----------4-----0--4--4--0
5)-----2-----2-----2--2h5--2----2-----2-----------0-----------------------
6)--0-----2-----0--------------------------------------3-----3------------

1)------------------------------------------------------------------------
2)------------------------------------------------------------------------
3)------------------------------------------------------------------------
4)------4-----0--0--4-----------4-----0--4--4--0--------4-----0--0--4--0--
5)---2-----2-----------0-----------------------------2-----2--------------
6)---------------------------3-----3--------------------------------------

1)------------------------------------------------------------------------
2)------------------------------------------------------------------------
3)---------------------0----(0)-------------------------------------------
4)------4-----0--4--4-----------4-----0--0--4--0--------2h5--2------------
5)---0-----0-------------------------------------------------------4------
6)---------------------------3-----3-----------------0----------2---------

1)------------------------------------------------------------------------
2)-----------------------------------------------------0h4p0----0h4p0-----
3)---------------------------------0--7-----0-----------------4--------0--
4)---------0--------------------7--------7----------5---------------------
5)-----5------------7--------5--------------------------------------------
6)--3---------3--5--------------------------------------------------------

1)--------1-----------------------0---------------------------------------
2)-----------1-----------------0-----0---------0--------------------------
3)-----0--------0--------4--0---------------------0--4--------------------
4)--3-----------------2---------------------2-----------------------------
5)-----------------------------------------------------/3-----------------
6)------------------------------------------------------------------------

ноты Metallica - Nothing Else Matter | Sheets Piano

Metallica — легендарная американская метал-группа, оказала большое влияние на развитие метал-музыки и входит (наряду с группами Slayer, Megadeth и Anthrax) в так называемую «большую четвёрку трэш-метала».

В 2009 году Metallica была введена в зал славы рок-н-ролла. Альбомы Metallica были проданы в общей сложности в количестве более 100 миллионов экземпляров во всем мире, что делает эту группу самой коммерчески успешной из всех метал-групп. Альбом группы, названный Metallica, является самым продаваемым альбомом за всю историю метала: его продажи составляют более 15 077 000 копий в США.
История группы

Раннее время
Metallica была основана в г. Лос-Анжелес, штат Калифорния в октябре 1981 года гитаристом и вокалистом Джеймсом Хэтфилдом и барабанщиком Ларсом Ульрихом, после того как оба поместили объявление о создании группы в издании The Recycler. Дуэт пригласил басиста Рона Макговни, знакомого Хэтфилда по его предыдущей группе Leather Charm, однако на ранних стадиях существования группы постоянно возникали проблемы с гитаристами, поэтому уже поначалу их сменилось несколько: Ллойд Грант, Брэд Паркер и Джефф Уорнер. Metallica получила своё название, когда Рон Куинтана попросил Ларса Ульриха помочь ему выбрать название для своего нового журнала об американских и британских метал-группах. Куинтана имел такие варианты, как «Metallica», «Metal Mania» и «Hesse». Ульрих сообразил, что «Metallica» будет отличным названием группы, и сказал Рону, что такое название вряд ли кому-нибудь понравится.

Вдохновением для Metallica служила музыка таких групп, как Venom, Black Sabbath, Motörhead, Diamond Head, Saxon, Scorpions, Thin Lizzy, Judas Priest, Iron Maiden, Mercyful Fate и другие британские метал-группы. Также на музыку Metallica повлияли панк-рок группы Misfits, Zeroption, Discharge и The Ramones.

В начале 1982 года Ульрих убедил основателя и владельца Metal Blade Records Брайана Слэйджела включить песню Hit The Lights в первую компиляцию Metal Massacre. Отчаявшись в поисках постоянного лидер-гитариста, Ульрих поместил объявление в местной газете. Дэйв Мастейн из Ханингтон Бич, который в то время уже играл в группе Panic, ответил и встретился с участниками Metallica для прослушивания. Ульрих и Хетфилд были так впечатлены оборудованием и одной лишь разминкой Мастейна, что они попросили его присоединиться к группе ещё до начала самого прослушивания.

В марте и апреле 1982 года было записано несколько небольших демо, включая Hit The Lights, Ron McGovney’s ‘82 Garage Demo, которая была записана в гараже Макговни и Power Metal demo. Несколько месяцев спустя группа записала полноформатное демо No Life ‘Til Leather, которое быстро привлекло внимание неофициальных кругов продажи метал-музыки. После этого они выпустили концертное демо Metal Up Your Ass. 25 мая 1982 года происходит историческое событие: Metallica впервые выходит на сцену (группа выступила с концертом в школе, в которой учился Ларс Ульрих).

После того как Metallica увидела, как играет группа Trauma, коллектив попросил басиста Клиффа Бёртона присоединиться к нему, заменив тем самым менее профессионального Макговни. Бёртон согласился, но с условием, что группа переедет в его родной город Сан-Франциско. С Клиффом Бёртоном группа записала Megaforce Demo. После того как группа зарекомендовала себя как важная единица в Bay Area thrash metal, Metallica поехала в Нью-Йорк в 1983 году. Группа подписала контракт с новым лейблом Megaforce Records. Вскоре после этого Джеймс Хэтфилд и Ларс Ульрих решили, что становится всё сложнее выдерживать агрессивное и взрывное поведение Мастейна. Ему предложили покинуть группу, и Кирк Хэммет был приглашён из группы Exodus в качестве лидер-гитариста. После ухода из Metallica Дэйв Мастейн создал свою собственную группу Megadeth.

Поздней весной 1983 года группа отправилась в Рочестер (Нью-Йорк), чтобы записать свой первый альбом Kill ‘Em All. Альбом не получил начального коммерческого успеха, но группа получила растущую фанатскую базу из среды метала. Годом позже Metallica выпустила альбом Ride The Lightning. Включение в альбом более медленной, интроспективной песни Fade To Black отделило Metallica от большинства других трэш-метал групп.

Master Of Puppets, смерть Клиффа Бёртона
Когда Ride The Lightning привлёк внимание крупных звукозаписывающих компаний, Metallica подписала контракт с Elektra Records. Их первым релизом с Elektra был Master of Puppets 1986 года, который считается их переломным альбомом. Несмотря на то, что из альбома не было выпущено синглов, группа получила небольшой радиоэфир за счёт песен Master of Puppets и Welcome Home (Sanitarium). Группа получила ещё большую славу, когда её попросили открывать концерты Ozzy Osbourne, и Master of Puppets достиг 29-ой позиции в чарте Billboard Top Album Charts. Критики считают Master of Puppets «одним из величайших хэви-метал-альбомов всех времён».

27 сентября 1986 года, во время Европейского турне, Клифф Бёртон погиб в Швеции, когда автобус группы по дороге в Стокгольм занесло на скользкой дороге, и он перевернулся. Бёртона выбросило из окна и придавило автобусом. Был ли Клифф Бёртон уже мёртв или нет, остаётся спорным вопросом, но он получил критические ранения. Лебёдка, которая поднимала автобус, порвалась, что привело к тому, что автобус упал на него второй раз.

«Я видел, как из-под автобуса торчали его ноги. Помню, водитель пытался вытащить из-под него одеяло, чтобы им могли воспользоваться оставшиеся в живых. Тут меня прорвало: «Не трогай его, твою мать!…» Я готов был убить его. Я не знаю, был ли он пьян или виной всему гололёд. Я только знал, что он был за рулём и Клиффа больше нет» (Джеймс Хэтфилд, 1993 год).

Смерть Клиффа оставила группу в сомнении, что делать дальше. Три оставшихся участника Metallica решили, что Клифф Бёртон пожелал бы, чтобы они продолжали; с благословения семьи Бёртона Metallica начала поиски замены и почти сразу начала прослушивания. Среди претендентов был Лес Клэйпул, друг детства Киpка Хэмметта. Клэйпул понравился группе, но стиль его игры не подходил для неё. В серии Behind the Music, посвящённой Metallica, Хэтфилд объясняет, что Клэйпул был «слишком хорош» для Metallica. В конечном счёте Клэйпулу не было предложено место в группе, и Джейсону Ньюстеду, бывшему члену группы Flotsam and Jetsam, было предложено присоединиться к Metallica. Ньюстед официально вошёл в состав группы 28 октября 1986 года — спустя три недели после похорон Клиффа Бёртона. Группа закончила своё турне в начале 1987 года. Вслед за турне Metallica записала Garage Days Re-Revisited в июле 1987 года, чтобы опробовать новую построенную ими студию и оценить талант Ньюстеда.

…And Justice For All
…And Justice for All, первый студийный альбом, записанный после смерти Клиффа Бёртона, был выпущен в 1988 году. Басовая партия Ньюстеда едва слышна на альбоме, и многие фанаты предположили, что это было сделано намеренно в качестве реакции на смерть Бёртона либо подшучивания над Ньюстедом. Наиболее вероятная причина, указанная Хэтфилдом и Ульрихом в последовавших интервью, заключалась в том, что Ньюстед не присутствовал на сеансах сведения и не был в состоянии повлиять на этот процесс. Ульрих также высказал мнение, что нехватка ощутимых басов вызвана тем, что басовая партия Ньюстеда дублирует партию ритм-гитары Хэтфилда.

Альбом …And Justice for All логически завершил существование трэш-метала как жанра. Таких сложных конструкций, какие были представлены на этой пластинке, мир хэви-метала до этого не знал, даже принимая во внимание не очень удавшийся звук. Но дальше усложнять и без того сложное не имело смысла. Как заметил Ларс Ульрих, «Песни на …And Justice for All были совсем уж длиннющие, порой запутанные и мрачные. Нам нельзя было допускать второго такого альбома». Джеймс Хэтфилд после одного из живых исполнений заглавной песни альбома сказал: We will never play this fucking song again! (в пер. с англ. — «Мы больше не будем играть эту ё**ную песню!»), хотя спустя несколько лет песня опять вошла в сет-листы концертов.

Несмотря на то, что лирика песен была восхвалена, продюсирование альбома получило резкую критику из-за того, что ударные Ульриха звучали слишком глухо и гитары имели слишком слабое звучание. Последовало турне Damaged Justice для раскрутки альбома.

Несмотря на критику, в 1989 году Metallica претендовала на свою первую номинацию Грэмми в недавно созданной категории «Лучшее вокальное либо инструментальное хард-рок/метал выступление». Тем не менее награду получила группа Jethro Tull за альбом Crest of a Knave. Это спровоцировало много споров, так как Metallica была ожидаемым победителем и осталась ждать получения награды за исполнение песни One для телеэфира. Jethro Tull (которую большинство даже не считало хард-рок/метал группой) даже не следила за церемонией, считая, что их шансы получить награду слишком малы. Спустя три года на церемонии вручения Грэмми за Enter Sandman Ларс Ульрих пренебрежительно отозвался о Jethro Tull, сказав: «Мы должны благодарить Jethro Tull за то, что они не выпустили альбом в этом году».

Вслед за выпуском …And Justice for All Metallica охватила массовое направление музыки со своим дебютным клипом песни One. Группа исполняла песню на заброшенном складе, также в клипе были вставки из фильма Johnny Got His Gun. Вместо организации предстоящей сделки с владельцами лицензии Metallica просто полностью купила права на фильм. Поэтому фильм впоследствии не был выпущен на DVD. Конечный результат представлял из себя последовательную, но укороченную «мини-версию» фильма Johnny Got His Gun с замысловатой синхронизацией между песней и диалогами фильма.

The Black Album
В 1991 году Metallica выпустила альбом без названия (также известный поклонникам как Metallica или The Black Album — «Чёрный альбом»), который включал такие песни, как Nothing Else Matters, Sad But True, The Unforgiven, Holier Than Thou и Wherever I May Roam. Сопродюсером альбома был Боб Рок, который также работал с The Cult, Bon Jovi и Mötley Crüe. Обложка альбома была чёрной с очень бледным изображением змеи в правом нижнем углу и логотипом группы в противоположном. Большинство информации о создании альбома Metallica и о туре в его поддержку было включено в A Year and a Half in the Life of Metallica. Запись альбома была долгим и трудным процессом, продолжавшимся более года из-за длительных споров членов группы и Боба Рока относительно направленности и звучания альбома. Стоимость записи альбома превысила 1 миллион долларов (согласно Behind the Music: Metallica). Несмотря на всё это, альбом стал самым успешным релизом группы и занял первую позицию в чартах Billboard.

Первым синглом из альбома был Enter Sandman, который показал сниженный темп нового альбома по сравнению с предыдущими работами Metallica. Black Album на данный момент занимает 26-е место среди самых продаваемых альбомов Америки всех времён.

В связи с изменением звучания нового альбома в девяностых всё больше фанатов стали критиковать группу за то, что она, по их мнению, сделала огромный шаг в сторону коммерциализации своей музыки. Metallica часто шутливо подтверждала это мнение. В 1992, во время очень финансово успешного тура вместе с Guns N’ Roses, Хэтфилд получил ожоги второй и третьей степени левой руки из-за пиротехнических эффектов во время вступления к песне Fade To Black, которые привели к тому, что он не мог играть на гитаре часть турне. Гитарист Metal Church Джон Маршал (бывший сопровождающий Metallica) играл на гитаре оставшуюся часть турне, а Хэтфилд продолжал петь.

Load, ReLoad, Garage Inc., S&M
После почти трёхлетнего турне в поддержку The Black Album Metallica вновь отправилась в студию для создания и записи своего шестого студийного альбома Load. Они сделали перерыв в 1995 году и отыграли три концерта в Donington Park при поддержке групп Slayer, Skid Row, Slash’s Snakepit, Therapy ? и Corrosion Of Conformity. Короткое турне было названо Escape from The studio Tour 1995. Metallica потратила около года на написание и запись новых песен, составивших альбом 1996 года Load. На ранних стадиях работы над альбомом предполагалось, что Load будет двойным альбомом. В конце концов было решено, что лучший вариант — выпустить сначала половину песен, продолжить работу над остальными и выпустить их в следующем году. Следующий за Load альбом был назван ReLoad.

В 1996, вместе с релизом Load, все участники Metallica состригли себе волосы (хотя Хэммет в итоге вновь их отрастил), что было высмеяно фанатами, включая друзей группы Alice in Chains.

Эти альбомы представили существенные изменения в музыке Metallica. Скоростные темпы предыдущих работ группы были сменены медленным блюзовым звучанием гитар. В некоторых песнях использованы новые инструменты, включая колесную лиру в Low Man’s Lyric. Изменения в музыке, сделанные в Load и ReLoad, были ожидаемы после предыдущих экспериментов (особенно в альбоме Metallica).

Эти альбомы продавались хуже предыдущих трёх. Хэтфилд позже отметил в документальном фильме Some Kind of Monster, что изначально по планам группы песни из обоих альбомов должны быть лишь среднего качества и неоднократно шлифовались и перерабатывались, пока не было решено, что они подходят для релиза.

В 1998 Metallica выпустила двойной CD, названный Garage Inc… Первый диск содержал недавно записанные кавер-версии песен различных групп, начиная с Killing Joke, The Misfits, Thin Lizzy, Mercyful Fate и Black Sabbath и заканчивая неожиданно выбранными Nick Cave и Bob Seger. Второй CD собрал вместе ранее выпущенные кавер-версии, включая оригинал The $5.98 E.P.: Garage Days Re-Revisited, который уже стал редкой записью. На диске также содержались бонус-треки 1994 года.

7 марта 1999 мэр Сан-Франциско Уилли Браун объявил «Официальным днём Metallica» в городе. Месяцем позже, 21-22 Апреля, группа записала два концерта с симфоническим оркестром Сан-Франциско, в то время дирижируемым Майклом Каменом. Камен, который уже работал с Бобом Роком над Nothing Else Matters, предложил группе идею комбинирования музыки Metallica с симфоническим оркестром. Камен и оркестранты сочинили дополнительный оркестровый материал для нескольких песен группы, и на концерте было сыграно много песен начиная со времён Ride The Lightning. По ходу концерта Metallica также представила две новые песни: Minus Human и No Leaf Clover. Запись аудио и видеосъёмка концерта были выпущены в ноябре того же года как альбом S&M.

Уход Ньюстеда, St. Anger
Так как Metallica планировала вернуться в студию в 2001, Ньюстед покинул группу из-за, как он сказал, «физического вреда, который он нанёс себе за годы игры музыки, которую он любит». Однако из последующих интервью с Ньюстедом и оставшимися участниками Metallica стало известно, что желание Ньюстеда выпустить запись своего проекта Echobrain и отправиться с ним в турне и упорное сопротивление этому Хэтфилда стали основными причинами ухода басиста из группы. Также интервью журнала Playboy раскрыло тот факт, что подшучивания над Ньюстедом как над новичком, начавшиеся с момента его прихода в группу, не прекратились со временем. Плюс ко всему, у Ньюстеда никогда не было статуса партнёра в написании песен, который был у Клиффа Бёртона (за 15 лет вместе с группой он был соавтором лишь трёх песен — Blackened из …And Justice for All, My Friend Of Misery из Metallica и Where The Wild Things Are из ReLoad). Документальный фильм 2004 года Some Kind of Monster пролил больше света на уход Ньюстеда из Metallica.

В июле 2001 Хэтфилду пришлось пройти курс реабилитации в связи с «алкоголизмом и другими вредными привычками». Около года Metallica не делала ничего важного. Ларс Ульрих и Киpк Хэмметт первое время всерьёз считали, что с группой может быть всё кончено. В конце концов Джеймс вернулся в группу, но работал лишь по четыре часа в день, остальное время проводил со своей семьёй. Медленно Metallica сочиняла и записывала материал для своего нового альбома. Боб Рок исполнял партии бас-гитары. Создание альбома было документировано в фильме Some Kind of Monster. После записи нового альбома Metallica проводила прослушивания для постоянной замены Ньюстеда в начале 2003 года. Роберт Трухильо, бывший член групп Suicidal Tendencies и Ozzy Osbourne, был выбран в качестве нового басиста Metallica. Резюме Роберта включало также Infectious Grooves и работу с Black Label Society на их DVD Boozed, Broozed, and Broken-Boned. Так как Metallica продолжила своё существование, Джейсон Ньюстед также нашёл себе музыкальный приют в легендарной канадской трэш-метал группе Voivod в 2002 году. Также стоит отметить тот интересный факт, что Джейсон стал заменой Роберта Трухильо в группе Ozzy Osbourne на протяжении турне Ozzfest в 2003 году (в этом турне также принимала участие группа Voivod).

В июне 2003 года дебютировал восьмой студийный альбом Metallica St. Anger, занявший первые места в чартах. Будучи намеренно «сырым» и неотшлифованным альбомом, St. Anger был сурово раскритикован фанатами. «Сырое» звучание записи, «гибкость» высоты вокала Хэтфилда, «металлическая» подзвучка ударных Ульриха и полное отсутствие гитарных соло получили отдельную критику. Несмотря на всё это, альбом выиграл премию Грэмми за «Лучшее метал-выступление» в 2004 году.

Обширное турне Summer Sanitarium Tour 2003 в поддержку St. Anger длилось два года, на концертах выступали также группы Mudvayne, Deftones, Linkin Park и Limp Bizkit. Также стоит заметить, что во время длительного турне Metallica Madly in Anger with the World с группой Godsmack почти каждое выступление профессионально записывалось и продавалось на сайте LiveMetallica.com. Группа сделала перерыв в 2005 году, проведя большую часть времени с друзьями и семьей, однако отыграла два исторических шоу на открытии для Rolling Stones в Сан-Франциско.

Недавние события, альбом Death Magnetic
16 февраля 2006 Metallica на своём официальном сайте анонсировала, что после более 15 лет сотрудничества с группой Боб Рок, который продюсировал все альбомы с 1991 года, не будет принимать участия в записи следующего альбома. На данный момент Metallica работает над новым альбомом с продюсером Риком Рубином, который продюсировал такие группы, как System of a Down, Slipknot, Linkin Park, My Chemical Romance, Red Hot Chili Peppers, Slayer и Rage Against the Machine. 6 июня 2006 в Берлине в рамках тура Escape from the Studio ‘06 группа сыграла новую песню, временно названную The New Song. 12 августа 2006 в Токио в рамках Азиатской ветви турне Metallica продемонстрировала ещё одну новую песню, названную The Other New Song.

Группа и до этого играла новые песни ещё до их выхода: четыре песни из Ride the Lightning (Fight Fire with Fire, Ride The Lightning, Creeping Death и The Call Of Ktulu) были впервые сыграны до выхода альбома; Disposable Heroes из альбома Master of Puppets была впервые представлена публике 14 сентября 1985 года; песню Harvester Of Sorrow из альбома …And Justice for All сыграли ещё в 1987 году; песню 2×4 (альбом Load) — во время мини-турне Escape from the Studio 95 года; и четыре песни из ReLoad (Fuel, Devil’s Dance, The Memory Remains и Bad Seed) игрались на нескольких концертах 1996-97 годов.

Metallica пошла на встречу многочисленным просьбам фанатов и решила сделать каждый из своих альбомов доступным в музыкальном интернет-магазине iTunes, однако только в США и Канаде. В первые четыре альбома были добавлены эксклюзивные записи из концерта 89 года в Сиэттле.

13 октября 2006 года Metallica анонсировала выпуск нового DVD, содержащего все их видеоклипы с 1989 по 2004 год. Диск The Videos 1989-2004 был выпущен 4 декабря 2006 года во всём мире и 5 декабря в Северной Америке. Вскоре The Videos 1989–2004 также стал доступным на iTunes.

Группа также выпустила кавер-версию песни Эннио Морриконе The Ecstasy of Gold в совместном трибьют-альбоме We All Love Ennio Morricone, который вышел 20 февраля 2007 года. The Ecstasy of Gold открывала концерты Metallica более 20 лет, но была оригинальной аранжировкой и всегда проигрывалась из записи. В новой версии сама группа исполняет её в новой интерпретации, основанной на гитарах.

12 марта 2007 года Metallica начала непосредственно запись нового, девятого по счёту, студийного альбома — Death Magnetic. Также был аннонсирован летний тур (позже названный Sick of the Studio ‘07), в рамках которого Metallica посетила Россию и дала концерт в переполненных Лужниках.

Долгожданный девятый студийный альбом группы, Death Magnetic, вышел в свет 12 сентября 2008 года.

Metallica | Музыкальные E-книги

Металлика полностью. Том 1.

Ноты, табы, партия голоса, вокальный подстрочник, аккордовые диаграммы.

Содержание: Hit The Lights * The Four Horseman * Motorbreath * Jump In The Fire * (Anesthesia) – Pulling Teeth * Whiplash * Phantom Lord * No Remorse * Seek & Destroy * Metal Militia * Am I Evil * Blitzkrieg

pdf. Вес файла 90,8 mb, zip архив. На английском языке. ? г.

Для скачивания необходима регистрация.

Лучшее из Металлики. Песенник.

Ноты для фортепиано, партия голоса, вокальный подстрочник, гитарные аккорды и диаграммы.

Содержание:

Seek & Destroy
Fade To Black
Welcome Home (Sanitarium)
One
Enter Sandman

Подробнее: Best Of Metallica – Songbook

Играй на гитаре с Металликой.

Ноты, табы, вокальный подстрочник, звуковые примеры 6-ти песен с минусами:

Ain’t My Bitch * Enter Sandman * Fade To Black * Nothing Else Matters * The Unforgiven * Welcome Home (Sanitarium)

pdf + mp3. Вес файла 85 mb, zip архив. На английском языке. ? г.

Для скачивания необходима регистрация.

Играй на гитаре с Металликой, книга 2.

Ноты, табы, вокальный подстрочник, звуковые примеры 6-ти песен с минусами:

Carpe Diem Baby * Creeping Death * Leper Messiah * Seek And Destroy * The Memory Remains * Whiskey In The Jar

pdf + mp3. Вес файла 173 mb, zip архив. На английском языке. 2003 г.

Для скачивания необходима регистрация.

Лучшее от Металлики.

Ноты, табы, аккордовые диаграммы, вокальный подстрочник, лирика.

Содержание:

… And Justice For All
Creeping Death
Enter Sandman
Harvester Of Sorrow
Jump In The Fire
Master Of Puppets
My Friend Of Misery

Подробнее: Best Of Metallica

Дэйв Килминстер: “Металлика – Enter Sandman”.

Ноты, табы, звуковой пример, минус.

Урок из журнала Guitar Techniques.

jpg + mp3. Вес файла 11,6 mb, zip архив. На английском языке. Июль 1996 г.

https://cloud.mail.ru/public/37gL/4FJ1yL3e1

Дино Фаучи: “Металлика и Ларс Ульрих”.

Ноты для ударных, вокальный подстрочник, звуковые примеры.

An up-close look at heavy metal’s leading drummer, using actual transcribed examples of Metallica hits. Dino Fauci has been playing drums for 16 years, and has studied privately with David Garibaldi, Greg Bissonette, and Peter Erskine, to name a few. He has also completed the percussion program at the Grove School of Music. Dino has appeared in the Star Jam video series featuring John Bonham, and the “Beginning Rock Drum Video”. He has transcribed two Winger albums and the video workbook for the Randy Castillo.

Подробнее: Dino Fauci – Metallica’s Lars Ulrich

Металлика: “Запрограммированный … на самоуничтожение”.

Ноты для гитары, табы, вокальный подстрочник.

Содержание: Hardwired • Atlas, Rise! • Now That We’re Dead • Moth into Flame • Dream No More • Halo on Fire • Confusion • ManUNkind • Here Comes Revenge • Am I Savage? • Murder One • Spit Out the Bone.

pdf. Вес файла 33,8 mb, zip архив. На английском языке. 2016 г.

Для скачивания необходима регистрация.

Металлика – Легендарные фразы 1983-1988 гг.

Ноты, табы, звуковые примеры.

(Guitar Method). This new book with online audio in the Legendary Licks series features note-for-note transcriptions and detailed performance notes for 17 metal masterpieces from Metallica’s early years.

Guitarists will learn dozens of classic licks, riffs, fills and solos from songs such as: …And Justice for All * Battery * Fade to Black * The Four Horsemen * Jump in the Fire * Seek & Destroy * Whiplash * and more. The split-channel audio includes recorded demonstrations, plus slowed-down versions of the tricky passages. Also features gear setups and an historical retrospective of the band.

pdf + wma. Вес файла 26,9 mb, zip архив. На английском языке. 2000 г.

Для скачивания необходима регистрация.

Metallica (1983-1988).

Ноты, табы, партия голоса, вокальный подстрочник, лирика, звуковые примеры, минусы 8-ми песен:

Battery • Creeping Death • Fade to Black • For Whom the Bell Tolls • Master of Puppets • One • Seek & Destroy • Welcome Home (Sanitarium)

pdf + mp3. Вес файла 207 mb, zip архив. На английском языке. 2018 г.

Для скачивания необходима регистрация.

Артур Ротфелд: “Искусство Джеймса Хэтфилда”. (Книга о Кирке здесь).

Ноты, табы, аккордовые диаграммы.

Этот исчерпывающий обзор особенностей техники Хэтфилда содержит:

более 70 классических рифов Metallica, шесть полных гитарных соло, эксклюзивное интервью, медиаторную технику, настройки оборудования, схемы аккордов Metallica, фотографии, а также полная транскрипция и анализ «Sad but True».

Обязательно для поклонников Metallica!

Подробнее: Arthur Rotfeld – The Art Of James Hetfield

Артур Ротфелд: “Искусство Кирка Хэмметта”. (Книга о Джеймсе здесь).

Ноты, табы.

Более 30-ти полных соло из репертуара Metallica. Классические Хэмметовские фразы. Интервью. Гаммовые диаграммы. Настройки оборудования. Фото.

(Guitar Book). This book is a complete, thorough analysis of the music of Metallica including notes on the band, a time line history, performance notes, photos, and equipment setup. The Art Of series examines the guitar solos of the band Metallica with note-for-note transcriptions in notes and tab.

pdf. Вес файла 14,7 mb. На английском языке. 1997 г.

Для скачивания необходима регистрация.

Фил Малфорд: “Быстрый лидирующий классический металлический бас”.

Ноты, табы, звуковые примеры.

Четыре песни, каждая в стиле одной из групп: Metallica, ACDC, Thin Lizzy и Black Sabbath.

In this book you’ll learn to play more great metal grooves in the style of some legendary bands — Thin Lizzy, Black Sabbath, ACDC and Metallica. These examples expand on the grooves in this book’s sister FastTrack volume, Metal Bass Styles, taking you further into the world of serious metal. There are four great songs in this book, each in the style of one of the major heavy metal bands.

pdf + mp3. Вес файла 96,1 mb, zip архив. На английском языке. 1997 г.

Для скачивания необходима регистрация.

Тоби Уайн: “Учись играть на гитаре с Metallica. Часть 2”. (Первая часть).

Ноты, табы, звуковые примеры.

Для начинающих электрогитаристов. Фрагменты из песен Металлики.

More tips on mastering the guitar using the music of Metallica as a guide, with demos of chords, articulations, modulations, soloing and much more on the CD.

32 top riffs are covered, including: Blackened • Don’t Tread on Me • For Whom the Bell Tolls • The Four Horsemen • Master of Puppets • Nothing Else Matters • Ride the Lightning • Seek & Destroy • The Unforgiven II • Wasting My Hate • и др.

pdf + mp3. Вес файла 55,9 mb, zip архив. На английском языке. 2007 г.

Для скачивания необходима регистрация.

Джо Чарупакорн: “Учись играть на гитаре с Metallica, часть 1”. (Вторая часть)

Ноты, табы, звуковые примеры.

Для начинающих электрогитаристов. Фрагменты из песен Металлики.

30 Metallica songs on the guitar:

…And Justice for All * Battery * Damage, Inc. * Enter Sandman * Fade to Black * Fuel * Hero of the Day * Master of Puppets * Nothing Else Matters * One * Ride the Lightning * The Struggle Within * The Unforgiven * и др.

pdf + mp3. Вес файла 56 mb, zip архив. На английском языке. 2001 г.

Для скачивания необходима регистрация.

Металлика. Риф за рифом.

Ноты, табы, аккорды, лирика.

Подробный разбор пяти вещей для ритм-гитары:

Seek Destroy
Creeping Death
Sad But True
Enter Sandman
Fade To Black.

pdf + mp3. Вес файла 162 mb, zip архив. На английском языке. 2000 г.

Для скачивания необходима регистрация.

Металлика. Легендарные фразы 1988-1996 гг.

Ноты, табы, звуковые примеры.

Содержание: One * The Shortest Straw * Enter Sandman * Sad But True * The Unforgiven * Nothing Else Matters * Wherever I May Roam * 2 x 4 * Until It Sleeps * King Nothing * Hero Of The Day * Fuel * The Memory Remains * The Unforgiven II.

tiff, jpg + mp3. Вес файла 36,1 mb, zip архив. На английском языке. ? г.

Для скачивания необходима регистрация.

Metallica: “Черный альбом”.

Гитарные ноты, табы, вокальный подстрочник.

Содержание:
Enter Sandman * Sad But True * Holier Than Thou * The Unforgiven * Wherever I May Roam * Don’t Tread On Me * Through The Never * Nothing Else Matters * Of Wolf And Man * The God That Failed * My Friend Of Misery * The Struggle Within

pdf. Вес файла 22,2 mb. На английском языке. 1991 г.

Для скачивания необходима регистрация.

“Металлика”. Альбом “Death Magnetic”.

Автор транскрибации – Jeff Jacobson.

Гитарные ноты, табы, партия голоса, слова. 2008 г.

Подробнее: Metallica – Death Magnetic

“Металлика”. Альбом “Master Of Puppets”.

Ноты и табулатуры для баса.

Содержание: Battery * Master of puppets * The thing that should not be * Welcome Home (Sanitarium) * Disposable Heroes * Leper Messiah * Orion * Damage

pdf. Вес файла 9,5 mb. На английском языке.

Для скачивания необходима регистрация.

Master Of Puppets, табы, на гитаре, аккорды

Песня "Metallica - Master Of Puppets" с аккордами для гитары.

E||---|-------------|
B||---|-------------|
G||-9-|-7----6----5-|
D||-9-|-7----6----5-|
A||-7-|-5----4----3-|
E||-0-|-------------|

E|-------------------------|---------|------------------------|
B|-------------------------|---------|------------------------|
G|*------------------------|-7--6--5-|------------------------|
D|*------------------------|-7--6--5-|------------------------|
A|--------7--------6-------|-5--4--3-|------------------------|
E|--0--0-----0--0-----0--0-|---------|-0--0--7--0--0--6--0--0-|

                          3x
E|--------------------------||--------------------------|
B|--------------------------||--------------------------|
G|-------------------------*||*-------------------------|
D|-------------------------*||*-------------------------|
A|--------------------------||---------2--------3-------|
E|-5--0--4--0--3--0--2--0---||---0--1-----0--1-----0--1-|

E|------------------------|------------------------|
B|------------------------|------------------------|
G|------------------------|------------------------|
D|------------------------|------------------------|
A|-4--------3--------2--2-|-------2--------3-------|
E|----0--1-----0--1-------|-0--1-----0--1-----1--0-|

E|-----------------------||--------------------------|
B|-----------------------||--------------------------|
G|----------------------*||*-------------------------|
D|----------------------*||*-------------------------|
A|-5-4-----5-4-----5-4---||---------2--------3-------|
E|-3-2--0--3-2--0--3-2---||---0--1-----0--1-----0--1-|

E|-----------------|---------------------|---------------------|
B|-----------------|---------------------|---------------------|
G|-----------------|---------------------|-------------------4-|
D|-----------------|---------------------|-------------------4-|
A|-4-----3-----2-2-|-----2-------3-------|-4--------3--------2-|
E|---0-1---0-1-----|-0-1---0--1-----0--1-|----0--1-----1--0----|

E|------------------------|------------------------|
B|------------------------|------------------------|
G|------------------------|------------------------|
D|------------------------|------------------------|
A|-------2--------3-------|-4--------3--------2--2-|
E|-0--1-----0--1-----0--1-|----0--1-----0--1-------|

E|------------------------|------------------------|
B|------------------------|------------------------|
G|------------------------|----------------------*-|
D|------------------------|----------------------*-|
A|-------2--------3-------|-5-4-----5-4-----5-4----|
E|-0--1-----0--1-----1--0-|-3-2--0--3-2--0--3-2----|

E|-----------------------|----|
B|-----------------------|----|
G|-----------------------|----|
D|-----------------------|--2-|
A|--5-4-----5-4-----5-4--|--2-|
E|--3-2--0--3-2--0--3-2--|--0-|

E|--------------------------|-----------------------|
B|--------------------------|-----------------------|
G|*-------------------------|-----------------------|
D|*-------------------------|-----------------------|
A|--------------------------|----5/-7-----8-7--5/-7-|
E|---0--0--0--0--0--0--0--0-|-0--3/-5--0--6-5--3/-5-|

                                           5x
E|------------------------|-----------------||-----------------|
B|------------------------|-----------------||-----------------|
G|------------------------|----------------*||-----------------|
D|------------------------|----------------*||-----------------|
A|------------------------|----5/-7--5/-7---||-----------------|
E|-0--0--0--0--0--0--0--0-|-0--3/-5--3/-5---||-2-2-2-2-2-2-2-2-|

E|--------------------|------------------------|---------------|
B|--------------------|------------------------|---------------|
G|--------------------|------------------------|---------------|
D|----4--4--5-4--4--4-|------------------------|----4-----4----|
A|----0--2--3-2--0--2-|------------------------|----0h-2--0h-2-|
E|-2------------------|-2--2--2--2--2--2--2--2-|-2-------------|

E|----------------------|--------------------|-----------------|
B|----------------------|--------------------|-----------------|
G|----------------------|--------------------|-----------------|
D|----------------------|----4--4--5-4--4--4-|-----------------|
A|----------------------|----0--2--3-2--0--2-|-----------------|
E|-2-2-2--2--2--2--2--2-|-2------------------|-2-2-2-2-2-2-2-2-|

E|-------------|--------------------||----------------------|
B|-------------|--------------------||----------------------|
G|-------------|-4-4-4-4-4-4--4--4--||*--9-----------7----9-|
D|---4----4----|-4-4-4-4-4-4--4--4--||*--9-----------7----9-|
A|---0h-2-0h-2-|-2-2-2-2-2-2--2--2--||---7-----------5----7-|
E|-2-----------|--------------------||---0--0--0--0---------|
                                                             2x
E|--------------------|-------------------|--------------------|
B|--------------------|-------------------|--------------------|
G|--------------------|-------------------|-------------8----*-|
D|-------9------------|-------------10--9-|-------------8--9-*-|
A|-7--9-----10-9h-10~-|-------------10--9-|-------------6--9---|
E|--------------------|-8--8--8--8--8---7-|-8--8--8--8-----7---|

E|-------------------|---------------------|-------------------|
B|-------------------|---------------------|-------------------|
G|-9-----------7---9-|---------------------|-------------------|
D|-9-----------7---9-|-------9-------------|-------------10--9-|
A|-7-----------5---7-|-7--9-----10--9h-10~-|-------------10--9-|
E|-0--0--0--0--------|---------------------|-8--8--8--8--8---7-|

E|------------------------|--------------------|---------|
B|------------------------|--------------------|---------|
G|------------------------|--4----4------------|--2----2-|
D|------------------------|--2----2------------|--3----3-|
A|--9--7--6----6----------|--2----2------------|--3----3-|
E|----------------8--7----|--0----0------------|--1----1-|

E|----------------------|--------------|----|
B|----------------------|--------------|--0-|
G|--4-------------------|--------------|--0-|
D|--2-------------------|--------------|--0-|
A|--2-------------------|--------------|--x-|
E|--0----------0--0--0--|--2p-0--0--0--|--3-|

E|----------------------|--------------|----|
B|----------------------|--------------|----|
G|--5-------------------|--------------|--2-|
D|--5-------------------|--4-----------|--2-|
A|--3----------0--0--0--|--2--0--0--0--|--0-|
E|----------------------|--------------|----|

E|--2-------------------|--------------|----|
B|--3-------------------|--------------|--4-|
G|--2-------------------|--------------|--4-|
D|--0-------------------|--5-----------|--4-|
A|----------------------|--3-----------|--2-|
E|-------------3--3--3--|-----3--3--3--|----|

E|-------------|-----------|---|
B|-------------|-----------|-5-|
G|-9-----------|-7---------|-5-|
D|-9-----------|-7---------|-5-|
A|-7-----------|-5---------|-3-|
E|-0---0--0--0-|------0--0-|---|

E|--------|--------|---------------|-------------|
B|--------|--------|---------------|-------------|
G|-4----4-|-2----2-|-4-------------|-------------|
D|-2----2-|-3----3-|-2-------------|-------------|
A|-2----2-|-3----3-|-2-------------|-------------|
E|-0----0-|-1----1-|-0----0--0--0--|--2p-0--0--0-|

E|-------------------|------------------|---------|
B|--5----------------|------------------|---------|
G|--5----------------|------------------|--4----4-|
D|--5----------------|------------------|--2----2-|
A|--3----------------|------------------|--2----2-|
E|-------------------|------------------|--0----0-|

E|--------|------------------------|-------------------------|
B|--------|------------------------|-------------------------|
G|-2----2-|------------------------|-------------------------|
D|-3----3-|------------------------|-------------------------|
A|-3----3-|-------2--------3-------|--4--------3--------2--2-|
E|-1----1-|-0--1-----0--1-----0--1-|-----0--1-----0--1-------|

E|-------------------|-----------------|-----------------------|
B|-------------------|-----------------|-----------------------|
G|-------------------|---------------4-|-----------------------|
D|-------------------|---------------4-|-----------------------|
A|------2-----3------|-4------3------2-|------2--------3-------|
E|-0--1---0-1---1--0-|---0--1---1--0---|-0--1----0--1-----0--1-|

E|--------------------------|-------------------------|
B|--------------------------|-------------------------|
G|--------------------------|-------------------------|
D|--------------------------|-------------------------|
A|--4--------3--------2--2--|--------2--------3-------|
E|-----0--1-----0--1--------|--0--1-----0--1-----1--0-|

E|--------------------------|-------------------|
B|--------------------------|-------------------|
G|--------------------------|-------------------|
D|--------------------------|-------------------|
A|--5-4-----5-4-----5-4--|--5-4-----5-4-----5-4-|
E|--3-2--0--3-2--0--3-2--|--3-2--0--3-2--0--3-2-|

E||---------------------------|------------------------|
B||---------------------------|------------------------|
G||*--------------------------|------------------------|
D||*--------------------------|------------------------|
A||---------------------------|-----5/-7-----8-7--5/-7-|
E||---0--0--0--0--0--0--0--0--|--0--3/-5--0--6-5--3/-5-|

                                          3x
E|------------------------|-----------------||-----------------|
B|------------------------|-----------------||-----------------|
G|------------------------|----------------*||-----------------|
D|------------------------|----------------*||-----------------|
A|------------------------|----5/-7--5/-7---||-----------------|
E|-0--0--0--0--0--0--0--0-|-0--3/-5--3/-5---||-2-2-2-2-2-2-2-2-|

E|--------------------|------------------------|---------------|
B|--------------------|------------------------|---------------|
G|--------------------|------------------------|---------------|
D|----4--4--5-4--4--4-|------------------------|----4-----4----|
A|----0--2--3-2--0--2-|------------------------|----0h-2--0h-2-|
E|-2------------------|-2--2--2--2--2--2--2--2-|-2-------------|

E|--------------------|---------------|------------------------|
B|--------------------|---------------|------------------------|
G|--------------------|---------------|------------------------|
D|--------------------|---4-4-5-4-4-4-|------------------------|
A|--------------------|---0-2-3-2-0-2-|------------------------|
E|-2-2-2-2-2--2--2--2-|-2-------------|-2--2--2--2--2--2--2--2-|

E|---------------|------------------------||-------------------|
B|---------------|------------------------||-------------------|
G|---------------|-4--4--4--4--4--4--4--4-||*-9-----------7--9-|
D|----4-----4----|-4--4--4--4--4--4--4--4-||*-9-----------7--9-|
A|----0h-2--0h-2-|-2--2--2--2--2--2--2--2-||--7-----------5--7-|
E|-2-------------|------------------------||--0--0--0--0-------|
                                                              2x
E|---------------------|-------------------|-------------------|
B|---------------------|-------------------|-------------------|
G|---------------------|-------------------|-------------8---*-|
D|-------9-------------|-------------10--9-|-------------8-9-*-|
A|-7--9-----10--9h-10~-|-------------10--9-|-------------6-9---|
E|---------------------|-8--8--8--8--8---7-|-8--8--8--8----7---|

E|-------------------|---------------------|-------------------|
B|-------------------|---------------------|-------------------|
G|-9-----------7---9-|---------------------|-------------------|
D|-9-----------7---9-|-------9-------------|-------------10--9-|
A|-7-----------5---7-|-7--9-----10--9h-10~-|-------------10--9-|
E|-0--0--0--0--------|---------------------|-8--8--8--8--8---7-|

E|------------------------|--------------------|---------|
B|------------------------|--------------------|---------|
G|------------------------|--4----4------------|--2----2-|
D|------------------------|--2----2------------|--3----3-|
A|--9--7--6----6----------|--2----2------------|--3----3-|
E|----------------8--7----|--0----0------------|--1----1-|

E|----------------------|--------------|----|
B|----------------------|--------------|--0-|
G|--4-------------------|--------------|--0-|
D|--2-------------------|--------------|--0-|
A|--2-------------------|--------------|--x-|
E|--0----------0--0--0--|--2p-0--0--0--|--3-|

E|----------------------|--------------|----|
B|----------------------|--------------|----|
G|--5-------------------|--------------|--2-|
D|--5-------------------|--4-----------|--2-|
A|--3----------0--0--0--|--2--0--0--0--|--0-|
E|----------------------|--------------|----|

E|--2-------------------|--------------|----|
B|--3-------------------|--------------|--4-|
G|--2-------------------|--------------|--4-|
D|--0-------------------|--5-----------|--4-|
A|----------------------|--3-----------|--2-|
E|-------------3--3--3--|-----3--3--3--|----|

E|----------------------|-------------|----|
B|----------------------|-------------|--5-|
G|--9-------------------|--7----------|--5-|
D|--9-------------------|--7----------|--5-|
A|--7-------------------|--5----------|--3-|
E|--0----------0--0--0--|-------0--0--|----|

E|---------|---------|----------------------|-------------|
B|---------|---------|----------------------|-------------|
G|--4----4-|--2----2-|--4-------------------|-------------|
D|--2----2-|--3----3-|--2-------------------|-------------|
A|--2----2-|--3----3-|--2-------------------|-------------|
E|--0----0-|--1----1-|--0----------0--0--0--|--2p-0--0--0-|

E|---|--------|
B|-5-|--------|
G|-5-|-4----4-|
D|-5-|-2----2-|
A|-3-|-2----2-|
E|---|-0----0-|

E|--------|
B|--------|
G|-2----2-|
D|-3----3-|
A|-3----3-|
E|-1----1-|

E|-----------------------|
B|--17------------17--19-|
G|-----------------------|
D|-----------------------|
A|-----------------------|
E|-----------------------|

E|--15~--------------15--17----15----------19--15--12h-15p-12-|
B|---------------19------------------19-----------------------|
G|------------------------------------------------------------|
D|------------------------------------------------------------|
A|------------------------------------------------------------|
E|------------------------------------------------------------|

E|----------------------------------|
B|--13~---------------15r-------15r-|
G|----------------------------------|
D|----------------------------------|
A|----------------------------------|
E|----------------------------------|

E|--15--14--------15--14-----------------------------|
B|----------12------------12h-15p-12~----------------|
G|--------------------------------------------12--14-|
D|---------------------------------------------------|
A|---------------------------------------------------|
E|---------------------------------------------------|

E|--------------------------------|-------------------|
B|--15----15----------------------|-------------------|
G|--14r---14r-----14p-12------12--|-------------------|
D|------------------------14------|--14~-----------12-|
A|--------------------------------|-------------------|
E|--------------------------------|-------------------|

E|-------------------------------------------------------|
B|-------------------------------------------------------|
G|--12------14--12----11----------14----12----11h-12p-11-|
D|--------------------------12---------------------------|
A|-------------------------------------------------------|
E|-------------------------------------------------------|

E|-------------------------------------------|
B|-------------------------------------------|
G|-------------------------------------------|
D|--10~---------------9--10------------9--10-|
A|----------------12-------------------------|
E|-------------------------------------------|

E|--------------------------------------------------15----14-|
B|--------------------------------------12-------------------|
G|--------------------------11----12----------12-------------|
D|--12----10----12----14-------------------------------------|
A|-----------------------------------------------------------|
E|-----------------------------------------------------------|

E|--11h-12p-11--------------19----|------|
B|--------------12----10----------|--17~-|
G|--------------------------------|------|
D|--------------------------------|------|
A|--------------------------------|------|
E|--------------------------------|------|

E|-------------------|------------------|-------------------|
B|-------------------|------------------|-------------------|
G|-------------------|------------------|-----------------0-|
D|-------------------|------------------|------------2------|
A|-------------------|------------------|-------2-----------|
E|-------------------|------------------|--0----------------|

E|----------------------0h-2p-0------------3-|
B|------------3------------------3-----------|
G|-------2---------2------------------2p---0-|
D|--0----------------------------------------|
A|-------------------------------------------|
E|-------------------------------------------|

E|---------------------------------------|
B|------------3---------3--------------0-|
G|-------0---------0---------0-----------|
D|--------------------------------2------|
A|--3------------------------------------|
E|---------------------------------------|

E|-----------------------------------------|-------------------|
B|------------0-------------------0--------|------------0------|
G|-------2-------------------2-------------|-------2-----------|
D|-----------------------------------------|--1----------------|
A|--0--------------0----2--------------2---|-------------------|
E|-----------------------------------------|-----------------3-|

E|-------------------|----------------------0h-2p-0----------3-|
B|-------------------|------------3------------------3---------|
G|-----------------0-|-------2---------2----------------2p---0-|
D|------------2------|--0--------------------------------------|
A|-------2-----------|-----------------------------------------|
E|--0----------------|-----------------------------------------|

E|---------------------------------------|
B|------------3---------3--------------0-|
G|-------0---------0---------0-----------|
D|--------------------------------2------|
A|--3------------------------------------|
E|---------------------------------------|

E|----------------------------------------|-------------------|
B|------------0-------------------0-------|------------0------|
G|-------2-------------------2------------|-------2-----------|
D|----------------------------------------|--1----------------|
A|--0--------------0----2--------------2--|-------------------|
E|----------------------------------------|-----------------3-|

E|---------------------------------------|
B|---------------------------------------|
G|--4----4----4----4----4----4----4----4-|
D|--2----2----2----2----2----2----2----2-|
A|--2----2----2----2----2----2----2----2-|
E|--0----0----0----0----0----0----0----0-|

E|---------------------------------------|
B|---------------------------------------|
G|--4----4----4----4----4----4----4----4-|
D|--2----2----2----2----2----2----2----2-|
A|--2----2----2----2----2----2----2----2-|
E|--0----0----0----0----0----0----0----0-|

E|-------------------------------------------|
B|-------------------------------------------|
G|*------------------------------------------|
D|*------------------------------------------|
A|---4----4----5----4----4----4----5----4--4-|
E|---2----2----3----2----2----2----3---------|

E|---------------------------------------|
B|---------------------------------------|
G|---------------------------------------|
D|-------------------------------------6-|
A|--4----4----5----4----4----4----5----4-|
E|--2----2----3----2----2----2----3------|

E|------------------------------------------|
B|------------------------------------------|
G|------------------------------------------|
D|------------------------------------------|
A|--4----4----5----4----4----4----5----4--4-|
E|--2----2----3----2----2----2----3---------|

E|-------------------------------------------||----|
B|-------------------------------------------||----|
G|------------------------------------------*||--4-|
D|-------------------------------------6----*||--5-|
A|--4----4----5----4----4----4----5----4-----||--5-|
E|--2----2----3----2----2----2----3----------||--3-|

E|------------------|-------------------|---------------|
B|------------------|-------------------|---------------|
G|------------------|--3----------------|---------------|
D|------------------|--4----------------|---------------|
A|------------------|--4----------------|---------------|
E|------------------|--2----------------|--x----x----17-|

E|--------------------------|------------------------|
B|--------------------------|------------------------|
G|--------------------------|------------------------|
D|--------------------------|------------------------|
A|--------------------------|-----5/-7-----8-7--5/-7-|
E|--0--0--0--0--0--0--0--0--|--0--3/-5--0--6-5--3/-5-|

E|--------------------------|----------------|-----------------|
B|--------------------------|----------------|-----------------|
G|--------------------------|----------------|-----------------|
D|--------------------------|----------------|-----------------|
A|--------------------------|-----5/-7--5/-7-|-----------------|
E|--0--0--0--0--0--0--0--0--|--0--3/-5--3/-5-|-0-0-0-0-0-0-0-0-|

E|-----------------------|--------------------|---------------|
B|-----------------------|--------------------|---------------|
G|-----------------------|--------------------|---------------|
D|-----------------------|--------------------|---------------|
A|----5/-7-----8-7--5/-7-|--------------------|----5/-7--5/-7-|
E|-0--3/-5--0--6-5--3/-5-|-0-0-0-0-0--0--0--0-|-0--3/-5--3/-5-|

E|--------------------------|------------------------|
B|--------------------------|------------------------|
G|--------------------------|------------------------|
D|--------------------------|------------------------|
A|--------------------------|-----5/-7-----8-7--5/-7-|
E|--0--0--0--0--0--0--0--0--|--0--3/-5--0--6-5--3/-5-|

E|-----------------|----------------|-------------------------|
B|-----------------|----------------|-------------------------|
G|-----------------|----------------|-------------------------|
D|-----------------|----------------|-------------------------|
A|-----------------|----5/-7--5/-7--|-------------------------|
E|-0-0-0-0-0-0-0-0-|-0--3/-5--3/-5--|--0--0--0--0--0--0--0--0-|

E|--------------------|------------------------|---------------|
B|--------------------|------------------------|---------------|
G|--------------------|------------------------|---------------|
D|--------------------|------------------------|---------------|
A|---5/-7---8-7--5/-7-|------------------------|----5/-7--5/-7-|
E|-0-3/-5-0-6-5--3/-5-|-0--0--0--0--0--0--0--0-|-0--3/-5--3/-5-|

E|-----------------|------------------|------------------------|
B|-----------------|------------------|------------------------|
G|-----------------|------------------|------------------------|
D|-----------------|---4-4--5-4--4--4-|------------------------|
A|-----------------|---0-2--3-2--0--2-|------------------------|
E|-2-2-2-2-2-2-2-2-|-2----------------|-2--2--2--2--2--2--2--2-|

E|---------------|------------------------|--------------------|
B|---------------|------------------------|--------------------|
G|---------------|------------------------|--------------------|
D|----4-----4----|------------------------|----4--4--5-4--4--4-|
A|----0h-2--0h-2-|------------------------|----0--2--3-2--0--2-|

Расскажи всем! не жалей аккордов 🙂

Похожие песни под гитару:

Nothing else matters: аккорды, текст, табы

Nothing else matters — песня легендарной американской метал-группы Metalica, которая была образована в 1981 году. Группа оказала неописуемый вклад в развитие жанра метал и музыки в целом. Metalica входит в так называемую «большую четвёрку трэш-меттала» (Anthrax, Slayer и Megadeth ). Альбомы группы за  30 с хвостиком лет продались тиражом более 100 млн по всему миру, что делает её одной из самых комерчески-успешных металл групп в мире.
 
Скачать табы Metalica  Nothing else matters в Guitar Pro
 

Аккорды Nothing else matters — Metalica

Аккорды: Em D

Аккорды: C G

Аккорды: B7


 

Текст и аккорды Nothing else matters — Metalica

Вступление: Em... Em - Em - D - C

Куплеты:
Em                   D      C
  So close no matter how far
Em                      D             C
  Couldn't be much more from the heart
Em                 D       C
  Forever trusting who we are
G     B7           Em
  and nothing else matters

Em               D            C
  Never opened myself this way
Em                         D      C
  Life is ours, we live it our way
Em                  D              C
  All these words I don't just say
G     B7           Em
  And nothing else matters

Em                   D          C
  Trust I seek and I find in you
Em                 D            C
  Every day for us something new
Em                D             C
  Open mind for a different view
G     B7           Em      C  A
  and nothing else matters

Припев:
D                        C  A
Never cared for what they do
D                        C  A
Never cared for what they know
D     Em
But I know

Куплет:
 
So close no matter how far
Couldnt be much more from the heart
Forever trusting who we are
And nothing else matters

Припев:
 
Never cared for what they say
Never cared for games they play
Never cared for what they do
Never cared for what they know
And I know

Never opened myself this way
Life is ours, we live it our way
All these words I dont just say

Trust I seek and I find in you
Every day for us something new
Open mind for a different view
And nothing else matters

Припев:

Never cared for what they say
Never cared for games they play
Never cared for what they do
Never cared for what they know
And I know

So close no matter how far
Couldnt be much more from the heart
Forever trusting who we are
No nothing else matters

 

Видео разбор Nothing else matters — Metalica

25 лучших гитарных песен Metallica - вкладки в комплекте - Rock Guitar Universe

Metallica существует довольно давно, если быть точным, с 1981 года, и они являются частью большой четверки. Сюда входят еще три группы, Megadeath, Slayer и Anthrax, и они были пионерами трэш-метала.

С годами многое изменилось (например, некоторые из участников группы), но в основном они остались верны своему стилю. Естественно, как и любая группа, которая существует так долго, они экспериментировали с жанрами и пробовали что-то новое.

Если вы поклонник Metallica, вы, вероятно, знаете все эти песни, но знаете ли вы, как их играть? Metallica - нелегкая группа для изучения, а Джеймс Хэтфилд известен своей невероятной техникой игры правой рукой.

Nothing Else Matters

Пожалуй, самая популярная песня Metallica - это Nothing Else Matters. Даже если вы не металлист, есть большая вероятность, что вы знаете и любите эту песню. И популярность у него безумная. Вероятно, из-за более медленного темпа песня нравится почти всем.

Он был выпущен в 1991 году, их пятый альбом назывался просто - Metallica. Однако фанаты знают его по прозвищу The Black Album из-за полностью черной обложки. Он был написан Джеймсом Хэтфилдом и Ларсом Ульрихом, а Боб Рок продюсировал весь альбом.

Одна из интересных вещей заключается в том, что многие гитаристы предпочитают разучивать песню из-за простого вступления, но по мере того, как песня продолжается, все становится намного сложнее.

Nothing Else Matters Guitar Tabs

Enter Sandman

Следующая песня в списке из того же альбома и была ведущим синглом.Основная тема песни - детский кошмар, а слова написаны Хэтфилдом. Сингл Enter Sandman получил платиновый сертификат и разошелся тиражом более одного миллиона копий в США.

Музыка к песне была написана Хэтфилдом, Хэмметом и Ульрихом, и Кирк сказал, что основной рифф был вдохновлен Soundgarden. Enter Sandman легко стала одной из самых популярных песен не только на альбоме, но и за всю их карьеру.

В последней части песни есть молитва перед сном «Теперь я уложу меня спать», и она заканчивается вариацией Хэтфилда «Тише, малышка.Песня получила похвалу как от фанатов, так и от критиков.

Enter Sandman Guitar Tabs

The Unforgiven

The Unforgiven - еще одна песня из Черного альбома, и она только показывает ее популярность и то, насколько она впечатляла. Это мощная баллада, написанная Хэтфилдом, Хэмметом и Ульрихом.

Интересно, что рог, который вы можете услышать во вступлении, был взят из фильма The Unforgiven, и он был перевернут, чтобы они могли скрыть первоначальный источник. В песне говорится о борьбе и внутренней борьбе против людей, которые пытаются подчинить себе.

На протяжении многих лет The Unforgiven удавалось оставаться в числе самых популярных песен Metallica, и они часто играли ее вживую. В нем есть вступление на акустической гитаре, а затем идет более тяжелый куплет. Играть весело, и это не так сложно, как некоторые другие песни из списка.

The Unforgiven Guitar Tabs

One

Песня One - неотъемлемая часть почти каждого живого выступления и одна из любимых фанатами. Это антивоенная песня о тяжело раненом солдате.Его руки и ноги подорвались на мине, и он не может двигаться, говорить и видеть.

Его единственная надежда - каким-то образом найти способ общаться с персоналом больницы, и он умоляет Бога лишить его жизни. Клип на песню черно-белый, и в нем есть пара сцен из фильма «У Джонни есть пистолет».

One - тяжелая песня с невероятными риффами и быстрыми соло. Он начинается медленно и становится все быстрее и быстрее к концу. Это, несомненно, сложная песня, и вам может потребоваться время, чтобы сыграть ее идеально.

One Guitar Tabs

Fade To Black

Fade to Black - первая пауэр-баллада Metallica, выпущенная в 1984 году как часть их второго альбома Ride the Lightning. В написании песни участвовала вся группа, включая их покойного басиста Клиффа Бертона.

Как позже объяснил Ларс, он и Джеймс были одержимы смертью в данный момент, и главная тема песни - самоубийство. В нем есть вступление на акустической гитаре, и оно становится все тяжелее.

Ближе к концу песни есть соло, которое вошло во многие списки лучших гитарных соло всех времен. С годами он стал частью почти каждого живого выступления, и всем нравится его слушать.

Fade To Black Guitar Tabs

For Whom The Bell Tolls

Еще одна песня для Ride the Lightning - For Whom the Bell Tolls. Песня была вдохновлена ​​одноименным романом Эрнеста Хемингуэя и повествует о процессе смерти в современной войне.И песня, и роман были установлены во время гражданской войны в Испании.

Клифф Бертон написал вступление к песне задолго до того, как присоединился к группе, и он сыграл ее со своей второй группой в качестве инструментала в 1979 году.

Есть множество живых записей этой песни, и она считается одной из лучших. самые популярные треки Metallica.

For Whom The Bell Tolls Guitar Tabs

Seek & Destroy

Seek & Destroy - песня из их первого альбома Kill ‘Em All, и это первая песня, которую они записали.Это также третья по популярности песня вживую, и они исполнили ее 1525 раз. Основная тема песни - желание убить, но не делать этого.

Группа утверждает, что на эту песню сильно повлиял Diamond Head, а три соло в Seek & Destroy взяты из песни Princess of the Night by Saxon.

Песня идеально отражает ранние годы Metallica, и это одна из лучших песен, которые они когда-либо записывали. Это быстро, весело и может быть довольно сложно, поэтому вам, возможно, придется немного попрактиковаться.

Seek & Destroy Guitar Tabs

Creeping Death

Creeping Death был выпущен как сингл в 1984 году на Ride the Lightning. Песня была написана с точки зрения Ангела Смерти, и действие происходит в Древнем Египте. Как вы, наверное, догадались, песня была сильно вдохновлена ​​(или основана) на Библии и Книге Исход.

В нем рассказывается о бедствиях в Египте, и Кирк Хэммет написал главный рифф, когда ему было всего шестнадцать лет. Песня заняла первое место (в некоторых списках) как лучшая песня Metallica.Creeping Death обычно входит в десятку лучших, и они часто играли ее вживую.

Основным источником вдохновения для песни стал фильм «Десять заповедей», и группа решила написать песню о бедствиях.

Creeping Death Guitar Tabs

Master Of Puppets

Пожалуй, самая любимая песня в этом списке для всех металлистов. В песне есть все. Невероятный рифф, красивое соло и мощная лирика. Это самая популярная песня Metallica за всю историю, и они сыграли ее 1670 раз.

Песня вошла в альбом Master of Puppets в 1986 году, и ее основная тема - наркотики. В нем рассказывается о том, как быстро может измениться ваша жизнь и как вы теряете контроль над своей жизнью, пока не станете всего лишь марионеткой.

Вероятно, самая захватывающая часть для каждого гитариста - это «паучий рифф» в начале и количество приглушенных звуков в песне. А если и этого недостаточно, во второй части песни есть потрясающий инструментал.

Master Of Puppets Табы для гитары

The Unforgiven II

Unforgiven II - это «вторая часть» песни, и она следует той же теме.Обе песни имеют одинаковую последовательность аккордов, и это также относится к видео. Песня была частью альбома Reload в 1997 году.

Некоторые критики не одобряли идею написания продолжения для The Unforgiven, но другие наслаждались этой дозой ностальгии. Сегодня многие игроки предпочитают вторую версию оригиналу, и в 2015 году она была частью европейского турне.

Гитарные табы Unforgiven II

Welcome Home (Sanitarium)

Еще одна песня от Master of Puppets is Welcome Дом (Санаторий).Песня была вдохновлена ​​романом Кена Кизи «Пролетая над гнездом кукушки». Песня написана с точки зрения пациента, запертого в санатории.

Помимо мощных текстов, песня также великолепна для исполнения. Начинается она довольно медленно, почти как баллада. Но по мере того, как песня прогрессирует, она наращивает темп и больше искажений. Конец песни предлагает молниеносные соло с большим количеством подбираемых тремоло.

Это отличный способ научиться, так как первую часть песни играть довольно легко, но по мере того, как песня продолжается, становится все сложнее.

Welcome Home (Sanitarium) Табы для гитары

Harvester Of Sorrow

Harvester of Sorrow - первый сингл с альбома… And Justice for All, выпущенного в 1988 году. Песня представляет собой сырой Metallica на ранней стадии их карьеры. «Жнец печали» - это история о человеке, который впадает в безумие, и о том, как он переносит свой гнев на свою семью.

Песня - классический образец трэш-метала, и играть ее не так уж и сложно. Он намного медленнее по сравнению с некоторыми другими песнями группы, и вам, возможно, не придется так много практиковаться.

Хотя это не самая популярная песня в их карьере, она все еще на вершине, и группа продолжала играть ее почти в каждом туре.

Harvester Of Sorrow Guitar Tabs

The Memory Remains

Песня - заглавный сингл Reload, выпущенная в 1997 году. Джеймс считал, что Марианна Фейтфулл может добавить что-то особенное в песню, и он не ошибался . Марианна проделала невероятную работу по настройке всей жуткой атмосферы песни.

Основная тема песни - об артисте, который постепенно теряет известность, что сводит его с ума.По какой-то причине песня никогда не пользовалась популярностью на их шоу, хотя и имела успех. Это могло быть связано с тем, что Джейсон Ньюстед не любил его.

Если вы один из многих, кто любит эту песню, хорошая новость в том, что играть ее не так уж и сложно. По крайней мере, по сравнению с другими их песнями.

Memory Remains Guitar Tabs

Fuel

Fuel - еще один сингл, выпущенный в составе альбома Reload и получивший множество наград. Песня быстрая, мощная и быстро передает сообщение.Это песня о скорости и людях, которые любят водить машины.


Но иногда они слишком быстро водят машину и живут в таком же темпе. Любой фанат Хэтфилда уже знает, что в этой песне много недовольства, и может быть довольно сложно сыграть ее правильно.

Fuel Guitar Tabs

No Leaf Clover

Песня No Leaf Clover - одна из двух песен, написанных специально для их концерта S&M в 1999 году. Metallica играла вживую с симфоническим оркестром, которым дирижировал невероятный Майкл Камен.

No Leaf Clover начинается с оркестра, а вскоре за ним следует чистая гитара Хэтфилда. В остальной части песни чередуются более тяжелые и чистые части, и звучит она действительно хорошо.

С годами песня приобрела популярность, но в других турах симфоническое вступление исполняется из отснятого материала S&M.

Табы для гитары No Leaf Clover

Bleeding Me

Bleeding Me - песня из альбома Metallica 1997 года под названием Load. Он никогда не был выпущен как сингл, но был частью выступления S&M.Это также одна из редких песен, в которых используется орган Hammond.

Многие люди считают, что эта песня о зависимости и людях, борющихся с ней, но Джейсон сказал, что она о ком-то, переживающем моральные пытки. В песне чередуются медленные и быстрые части, и играть ее может быть очень весело.

Джеймс объяснил, что в эпоху Лага он хотел бросить пить и так долго боролся с этим. Песня о том, чтобы избавиться от всего плохого в своей жизни и «стремиться остаться с чем-то лучшим.”

Bleeding Me Guitar Tabs

Hit The Lights

Hit the Lights - песня из первого альбома Metallica Kill‘ Em All. Это была песня, восходящая к старой группе Хэтфилда Leather Charm. Они записали песню с Джеймсом на вокале, и это была одна из двух оригинальных песен, которые они исполнили на своем первом концерте.

Песня была основана на неоконченной предыдущей версии, написанной Хэтфилдом и Хью Тарнером. Hit the Lights начинается с нарастания барабанов, играемых со скоростью 160 ударов в минуту.Основной рифф исполняется на 16 нотах, и играть его тяжело.

И если учесть, что играть в Metallica - значит играть только нисходящие удары, то можно представить, насколько это сложно на самом деле.

Hit The Lights Guitar Tabs

Ain’t My Bitch

Ain’t My Bitch - первая песня альбома Load, выпущенная как сингл в Мексике. Как и следовало ожидать, песня привлекла внимание СМИ благодаря своему названию. Позже Джеймс объяснил, что это слово относится не к женщине, а к какой-то проблеме в целом.

Если задуматься, становится очевидно, что песня о человеке, которого не волнуют проблемы людей. Песня тяжелая (как и следовало ожидать), и Кирк играет на слайд-гитаре на пластинке.

Эта песня была важной частью тура после выпуска альбома, но на недавних концертах ее играли не так сильно, как другие песни.

Ain’t My Bitch Guitar Tabs

Пока не спит

Пока не спит - еще одна песня с альбома Load, выпущенная как сингл.Песня получила высокую оценку критиков и стала их первой песней, занявшей первое место в чартах Billboard США.

Рабочее название песни - F.O.B.D. потому что это напомнило им о Soundgarden's Fell on Black Days. Интересно, что во время припева песня имеет тот же ритм 6/4, что и песня, которая их вдохновила.

Джеймс Хэтфилд написал песню о борьбе его матери с раком. Музыкальное видео, снятое Сэмюэлем Байером, изображает падение человека.Одно из главных вдохновений для видео - картины Иеронима Босха. Интересно, что пока это не спит, это первая пиратская песня в истории.

Пока он спит Табы для гитары

St. Anger

St. Anger вышел в 2003 году и стал ведущим синглом одноименного альбома. Это также единственный альбом без официального басиста с тех пор, как Джейсон Ньюстед покинул группу до записи альбома. Более того, это было последнее сотрудничество с Бобом Роком, который был продюсером группы со времен «Черного альбома».

Весь альбом по-прежнему является интересной темой для поклонников Metallica, и они либо любят его, либо ненавидят. Песня St. Anger ничем не отличается. В песне нет соло, есть только быстрые риффы. Клип на песню был снят в тюрьме Сан-Квентин в Калифорнии.

Кроме того, в музыкальном видео Роберт Трухильо присоединился к группе в качестве басиста перед съемкой видео.

St. Anger Guitar Tabs

The Безымянный Feeling

The Безымянный Feeling был третьим синглом St.Anger, и он был выпущен в 2004 году. Основная тема песни - неназванное чувство, которое Хэтфилд объяснил как тревогу. В нем рассказывается об ощущении потери контроля непосредственно перед приступом паники.

Как и другие песни на St. Anger, они сильно отличаются по стилю. Музыкальное видео, выпущенное с синглом, было снято The Malloys, и оно показывает, как группа играет в пустой комнате с закрытыми стенами вокруг них.

Он также показывает истории о людях, испытывающих то же чувство через свои собственные истории.

The Безымянный Feeling Guitar Tabs

Shoot Me Again

Shoot Me Again - седьмая песня на St. Anger, и она идеально передает весь альбом. Одной из спорных тем в то время было звучание барабанов и отсутствие соло. С одной стороны, люди критиковали звучание барабанов как пустые банки, а с другой - хвалили отсутствие соло, баллад и поп-музыки.

Весь альбом жесток и прямолинеен, и вы его либо любите, либо ненавидите. Промежуточного нет.«Shoot Me Again» - это песня, которая, по мнению многих, была вдохновлена ​​битвой Metallica с Napster. Группа подала в суд на компанию за нарушение авторских прав и за то, как они позволяли пользователям делиться своими песнями в одноранговой сети.

В результате хор говорит: «Пристрелите меня еще раз, я еще не умер», что символизирует то, что они все еще стоят после всего, что произошло.

Shoot Me Again Гитарные табы

All Nightmare Long

All Nightmare Long - песня с альбома Death Magnetic, который был девятым альбомом Metallica.Одна из уникальных особенностей этой песни заключается в том, что она настроена в стиле drop D, к которому не привыкли фанаты старой школы.

Песня была выпущена в 2008 году, за ней последовал клип от Roboshobo. Интересно, что видео показывает альтернативную историю, показанную в форме псевдодокументации. Лирика вдохновлена ​​Х. П. Лавкрафтом и его мифами о Ктулху. Точнее о Псов Тиндало, которые включены в целые мифы.

Песня быстрая, наполнена риффами и весело играть.Излишне говорить, что вам нужно разогреть правую руку, чтобы играть правильно.

All Nightmare Long Guitar Tabs

The Unforgiven III

Заключительная часть «трилогии» - The Unforgiven III, выпущенная на Death Magnetic в 2008 году. Есть несколько изменений по сравнению с предыдущими двумя версиями, а именно: нельзя начинать с рога.

Вместо этого на фортепьяно есть вступление, за которым следуют валторны на заднем плане. Как и в двух других песнях, песня представляет собой смесь тяжелых и мягких частей, а вступление на фортепиано следует той же последовательности аккордов, что и его предшественники.

История следует тому же принципу греха, последствий, прощения и непрощения. Интересно, что Джеймс сказал, что из всех трех песен эта была его самой любимой. Для всех тех, кто ненавидел идею продолжения "Непрощенного", это, вероятно, было не самым привлекательным в мире.

The Unforgiven III Guitar Tabs

Hardwired

Последняя песня в списке из альбома Hardwired… to Self-Destruct. Он был выпущен в 2016 году и является десятым альбомом Metallica.Группа объяснила, что песня Hardwired была поздним дополнением к альбому, и как они решили, что им нужна быстрая и короткая вступительная песня.

Для всех поклонников «старой Металлики» эта песня может показаться осуществленной мечтой. Песня длится чуть более трех минут и звучит довольно похоже на их ранние работы. Кроме того, они сказали, что весь альбом был вдохновлен Kill ‘Em All.

Вкладыши для гитар с проводным подключением

Резюме

Metallica имеет богатую историю, насчитывающую несколько десятилетий.Они изобрели новый жанр, а затем начали экспериментировать с ним, чтобы создать что-то новое и уникальное. За прошедшие годы состав несколько изменился, но идея и основной принцип группы остались.

Сегодня, спустя почти сорок лет после Kill ‘Em All, Metallica по-прежнему сильна и продолжает развиваться во всем мире. Нет сомнений в том, что они выпустят больше альбомов, и они тоже будут невероятными.

Если вы нашли эту статью полезной, вы можете сохранить этот пин ниже на своей доске Guitar

Изучите песни Metallica на гитаре (методы, упражнения, вкладки)

Если вы хотите разучить песни Metallica на гитаре, вас ждут хорошие новости.

Если вы новичок, только начинающий, есть несколько песен, которые достаточно легко начать изучать прямо сейчас. Если вы гитарист среднего уровня, вы можете пробиться сквозь большую часть риффов и сольных песен Metallica. Если вы продвинутый гитарист, вам может понравиться множество их более техничных песен и соло.

В их альбомах много разнообразия, риффы и соло очень забавны, и мы можем многому научиться из написания песен.

Еще одна хорошая новость заключается в том, что вы можете воспользоваться некоторыми ярлыками, чтобы быстрее разучивать песни Metallica на гитаре.

Если вы хотите научиться играть песни Metallica на гитаре, прочтите это руководство, прежде чем искать уроки по песням или вкладки. Хотя учебник по песням поможет вам начать изучение песни, навыки и идеи, описанные в этой статье, помогут вам лучше освоить все песни Metallica.

В этой статье я собираюсь дать вам обзор навыков, техник и концепций, над которыми вам нужно работать, чтобы разучивать песни Metallica на гитаре.Если вы будете практиковать эти техники и навыки (включая упражнения из TAB), вам будет намного легче разучивать их песни.

Приемы игры на гитаре для песен Metallica

Есть некоторые гитарные приемы, которые постоянно встречаются в песнях Metallica. Чем больше вы практикуетесь и совершенствуете эти техники, тем легче будет выучить их песни. Каждый раз, когда вы разучиваете новую песню Metallica, вы будете узнавать эти техники и вам будет намного легче разучивать песню.

Сборщик

Джеймс Хэтфилд хорошо известен своей техникой игры на даунпикинге. В то время как другие гитаристы могут играть ритм-партии, используя альтернативный звук, Джеймс, как правило, играет почти все, используя только понижающий звук.

Причина, по которой он использует даунфильм, заключается в мощном звуке, который он создает. Есть небольшая разница в тоне, когда вы берете ноту вверх или вниз. Выбирая каждую ноту с движением вниз, он создает стабильный тон, который хорошо сочетается с металлическими риффами.

Вы можете попробовать это на себе, чтобы услышать, как ваш стиль игры меняет звучание ритмической партии.

Попробуйте выполнить упражнение ниже:

Примечание: , если вы не знаете, как читать приведенную выше ВКЛАДКУ, прочтите это Руководство по чтению ВКЛАДКИ на гитаре. Он объяснит все, что вам нужно знать, чтобы читать Guitar TAB.

Если вы не знакомы с символами выбора, первый такт воспроизводится со всем выбором вниз, затем второй такт использует альтернативный выбор (вниз вверх вниз вверх).

Вы должны услышать разницу между двумя стилями игры. При выборе всех нот вы получите единообразное звучание всех нот.При альтернативном выборе вы можете услышать небольшую разницу между взятой вниз и взятой нотой.

Несмотря на то, что при исполнении риффов Metallica игра all-down-picking, как правило, лучше звучит, может быть непросто повысить скорость и выносливость игры, если вы к этому не привыкли. Некоторые песни Metallica быстрые, так что вам нужно работать над понижающей чувствительностью до тех пор, пока вы не сможете стабильно играть в высоком темпе.

Вот пример риффа, над которым можно поработать с использованием all-down picking:

Вышеупомянутый рифф от Master of Puppets, и Джеймс Хэтфилд играет каждую ноту с понижающей чувствительностью.Эта песня имеет скорость 220 ударов в минуту, что довольно много, если вы пытаетесь сыграть каждую ноту с понижением частоты.

Как только вы сможете с легкостью сыграть вышеуказанный рифф со скоростью 220 ударов в минуту, используя выбор всего понижения, вы сможете без проблем использовать его практически для любой песни Metallica.

Вот пара песен Metallica, в которых стоит потренироваться:

  • Мастер кукол
  • Ползучая смерть
  • Черненое

Если вы можете воспроизвести указанные выше песни на полной скорости, используя выбор всех вниз, вы обнаружите, что все остальное будет легко.

Примечание: в то время как Джеймс Хэтфилд предпочитает играть с понижающим выбором, Кирк Хэммет регулярно использует альтернативный пик. Так что можно играть песню Metallica с альтернативным выбором, если вам так больше нравится. Выбирайте любой стиль, который вам больше нравится.

Ритмы галопа

В то время как Джеймс Хэтфилд в основном использует сбор всех вниз, бывают случаи, когда он действительно использует сборы. Хороший пример этого - так называемые ритмы «галопа».

Ритм галопа - это группа из трех быстрых нот, повторяемых снова и снова.Когда вы играете их достаточно быстро, это звучит как галоп. Эта техника популярна в металле, и вы услышите ее во многих песнях Metallica.

Посмотрите первые несколько тактов из "Hardwired" для простого примера ритма галопа:

Легко развить сильную технику галопа. после того, как вы выработали свою технику даун-пикинга.

Если у вас возникли проблемы с воспроизведением вышеуказанного риффа на полной скорости, то примите это как знак, что вам нужно потратить больше времени на отработку техники даун-пикинга, прежде чем работать над техникой галопа.Гитаристу с сильной техникой даун-пикинга будет легко играть ритмы галопа.

Вот несколько песен Metallica, в которых используется ритм галопа, которые стоит потренировать:

  • Четыре всадника
  • Аккумулятор
  • All Nightmare Long
  • Проводной

Эту технику легко практиковать, поэтому потратьте некоторое время на метроном и укрепите свою выносливость в галопе. Когда вы почувствуете, что ваша рука начинает уставать, сделайте небольшой перерыв и вернитесь позже.Вы быстро разовьете свою выносливость.

Бывают и другие случаи, когда Джеймс Хэтфилд использует альтернативный выбор. Быстрый рифф в One - хороший пример того, когда не следует выбирать все. Таким образом, хотя Хэтфилд предпочитает выбирать все, но есть много риффов, которые можно хорошо сыграть только с помощью альтернативного выбора.

Чистые арпеджио

Если вам нужен перерыв в отработке яростных ритмов игры вниз или галопа, вот кое-что, над чем можно поработать. Во многих песнях Metallica есть чистые гитарные партии, в которых используются арпеджио.

Арпеджио - это необычное название, когда вы играете аккорд, выбирая ноты по отдельности, вместо того, чтобы играть на них.

Введение в Fade to Black - хороший пример стиля, в котором Metallica использует чистые детали:

Чтобы сыграть эту партию, вы держите первый и третий пальцы на 2-м и 4-м ладах. Затем, когда вы выбираете струны, вы слышите, как ноты звучат поверх друг друга, как вы слышите в песне.

Затем вы убираете палец только тогда, когда вам нужно сыграть на нижнем ладу или открытой струне (например: на втором такте, когда вы играете на открытой струне).

Вы можете решить, использовать ли альтернативный комплектование или комплектование полностью. Даже Джеймс Хэтфилд имеет тенденцию использовать альтернативный звукосниматель при игре чистых гитарных партий.

Чтобы вам было проще начать, попробуйте поработать над основным риффом One:

.

Убедитесь, что каждая нота звучит четко. Когда вы играете на открытой струне в конце первого такта, вы должны услышать, как звучат две ноты. Если ваши пальцы расположены неправильно, они могут коснуться соседних струн и не дать одной из открытых нот зазвенеть.

Вот несколько песен Metallica с чистыми партиями арпеджио, которые стоит потренировать:

  • Один
  • Переход к черному цвету
  • Добро пожаловать домой (санаторий)
  • День, который никогда не наступит
  • Все остальное не имеет значения
  • Непрощенные (I, II и III)

Некоторые из этих чистых партий очень похожи друг на друга, поэтому после пары песен вы научитесь этому стилю игры. Не торопитесь с каждой песней и убедитесь, что ноты звучат четко.

Пентатоника соло

Кирк Хэммет любит шкалу пентатоники. Он любит это почти так же, как любит пользоваться педалью вау (научитесь пользоваться педалью вау в этом уроке).

Хотя он не использует пентатонику для каждого соло, это ключевая часть его стиля. Как только вы выучите первую «коробочную» форму пентатоники, вы начнете видеть ее повсюду в его соло.

Хорошая новость в том, что шкалу пентатоники невероятно легко выучить. Как только вы выучите несколько основных форм гаммы, вам будет намного проще разучивать и запоминать соло Metallica.Некоторые из более простых соло Metallica полностью вписываются в базовые формы пентатоники.

Чтобы дать вам пример шкалы пентатоники в действии, вот первая позиция «квадрата»:

Когда эта форма используется на 12 ладу гитары, мы называем ее «пентатоника ми минор». Многие песни Metallica написаны в тональности ми минор, так что это полезное положение для запоминания.

Вот простое упражнение, которое вы можете использовать, чтобы запомнить форму прямоугольника на 12-м ладу:

Потренируйтесь в этой гамме и постарайтесь запомнить ноты.Если вы запомните ноты в этой форме, вам будет легче разучивать соло Кирка.

Вот несколько первых тактов соло для Enter Sandman, чтобы вы могли увидеть пентатонику ми минор в действии:

Внимательно посмотрите на каждую ноту и подумайте, какая из этих нот вписывается в форму пентатоники, показанную выше.

Вы заметите, что почти все эти ноты идеально вписываются в форму шкалы пентатоники. Единственная выделяющаяся нота - это 10-й лад на струне A, который совпадает с 15-м ладом на струне E.Так что даже эта нота является частью шкалы пентатоники.

Здесь следует помнить, что Кирк пишет большинство своих соло, используя пентатоническую шкалу в качестве отправной точки. Узнав, как работает шкала пентатоники и когда ее использовать, вы можете придумать свои собственные соло в том же стиле.

Вот несколько первых тактов простого соло Metallica из Nothing Else Matters, которое основано на шкале пентатоники на 12 ладу:

Вы можете заметить некоторые ноты за пределами формы пентатоники в этом соло, но вы должны быть в состоянии увидеть, как соло использует шкалу пентатоники в качестве приблизительной отправной точки.

Повторяющаяся фраза в третьем такте соло, которую вы увидите, используется во многих соло Metallica, а также соло других групп и гитаристов. По мере того, как вы разучиваете больше соло на основе пентатоники, вы увидите, что гитаристы, как правило, «делятся» многими одними и теми же фразами.

Если вы хотите научиться играть соло Metallica на гитаре, я настоятельно рекомендую начать с соло в Nothing Else Matters. Это относительно легкое соло для освоения и отличное развлечение для новичка, только начинающего играть соло (это было первое соло Metallica, которое я научился играть).

Дополнительный совет: Если вы хотите научиться играть на соло-гитаре, я настоятельно рекомендую запомнить гриф. Хотя это займет некоторое время, это может полностью раскрыть вашу игру и значительно упростить изучение полных соло в дальнейшем. Ознакомьтесь с этим уроком, чтобы начать запоминать гриф простыми методами.

Приглушение ладони

Приглушение ладони - важная техника, которую нужно освоить при игре в метал или рок. Попытка сыграть риффы Metallica без должного приглушения ладони будет звучать неправильно.

В большинстве песен Metallica используется приглушение ладони, поэтому легко найти примеры этого в действии. Приглушение ладоней позволяет сузить ритм-партии, чтобы придать им более объемный или ударный звук.

Как правило, всякий раз, когда вы видите открытую струну в риффе Metallica, это, вероятно, играет с приглушением ладони.

Давайте еще раз посмотрим на вступительный рифф к Master of Puppets, чтобы увидеть хороший пример того, как Metallica использует приглушение ладони:

Попробуйте сыграть рифф без приглушения ладони.Это не будет казаться правильным и определенно не будет звучать правильно. Ноты будут звучать беспорядочно на полной скорости. Заглушая открытые струны и не заглушая ладовые ноты, он полностью меняет звучание рифа.

Вместо того, чтобы все ноты были равны, выделяются ладовые ноты. Все открытые струнные ноты имеют резкое звучание, благодаря чему ладовые ноты звучат громче и четче.

Это называется динамикой, и отключение звука ладони - мощный способ добавить динамики вашей игре. Отключение ладони - отличный способ изменить ощущение от всего, что вы играете, и выделить различные ноты.

Нет смысла перечислять песни, которые используют приглушение ладони, потому что почти все они будут использовать его в какой-то момент. Послушайте любую песню Metallica и посмотрите, сможете ли вы определить, в каких нотах используется приглушение ладони, а в каких - нет.

Вот простой рифф Metallica из песни For Whom The Bell Tolls, в котором отлично используется приглушение ладони с пауэр-аккордами:

Приглушение ладони в этом риффе действительно придает пауэр-аккордам плотный и объемный звук. Обратите внимание, что последние пауэр-аккорды во втором и четвертом тактах не используют приглушение ладони.Если вы послушаете песню, вы услышите, как эти аккорды отличаются от остальных пауэр-аккордов.

Попробуйте сыграть этот рифф с сильным приглушением ладони, чтобы по-настоящему сосредоточиться на звучании пауэр-аккордов.

Практические советы по изучению песен Metallica

Вот несколько советов, которые следует помнить, разучивая и разучивая песни Metallica:

  • Используйте метроном: этот стиль игры лучше всего работает, когда ритмические партии исполняются точно по времени.Практика с метрономом поможет вам улучшить ритм. Это может показаться не таким увлекательным по сравнению с джемингом под песню, но это творит чудеса с вашими ритмическими навыками
  • Постепенно наращивайте темп: многие песни Metallica быстрые, поэтому может показаться странным упражняться в исполнении партий в медленном темпе. Но работа над быстрыми партиями в медленном темпе помогает вам улучшить контроль и точность. Как учитель гитары, я все время слышу небрежные каверы на песни Metallica.Выполнение этих частей в более медленном темпе и постепенное наращивание скорости назад поможет вам избежать небрежной техники
  • Практика с драм-машиной / минусовками: метроном - отличный инструмент для тренировок, но он может довольно быстро надоесть. Отработка партий под драм-машину или минусовку даст вам те же преимущества, что и практика с метрономом, но при этом будет намного веселее
  • Не используйте слишком много искажений: , если вы хотите получить хороший звук Metallica, не увеличивайте искажение.Хотя может показаться забавным увеличивать усиление, в конечном итоге вы получите мягкий тон. Вы хотите получить приятный четкий и резкий тон. Для этого вам нужно меньше искажений. Меньшее искажение дает больше четкости. Правильный уровень искажения и получение хорошего тона - это то, что я объясняю в моем курсе гитарных эффектов.

Легкие песни Metallica для обучения игре на гитаре

Если вы хотите начать разучивать песни Metallica, есть несколько песен, которые очень легко выучить.Начиная с этих песен, вы сможете привыкнуть к описанным выше методам, прежде чем переходить к более сложным песням.

Просмотрите эти песни, чтобы разучить некоторые простые ритм-партии:

  • По ком звонит колокол
  • Введите Sandman
  • Печально, но верно
  • One (первая половина песни медленная и легкая)

Если вы хотите начать разучивать соло, эти песни Metallica содержат самые простые соло и ведущие партии:

  • По ком звонит колокол
  • Мастер Марионеток (средняя ведущая часть и первое соло)
  • Все остальное не имеет значения
  • Fade to Black (вступительная и средняя ведущая части)

Даже если вы чувствуете, что готовы к более сложным соло, я настоятельно рекомендую начать с более легких соло.Намного лучше научиться справляться с легким соло, чем выполнять посредственную работу над тяжелым соло.

Начните с более легких соло и по-настоящему научитесь их играть. Затем, когда вы перейдете к более сложным соло, у вас будет гораздо больше навыков для работы.

Прочтите этот урок по Easy Guitar Riffs to Learn, чтобы поближе познакомиться с парой риффов Metallica, а также другими замечательными рок-риффами, которые легко выучить.

ONE Guitar Tabs от Metallica

Гитарные табы со словами

 ¨ONE¨ от: Metallica

Прислал: Ingo

[ вступление ]
[начинается с стрельбы и звука поля боя в течение нескольких секунд.. ]

   Си минорBm Gmaj7 (no3rd) си минорBm Gmaj7 (no3rd)
| -------------- | -------------- | -------------- | ---- --------------- |
| -------------- | -------------- | -------------- | ---- --------------- |
| -------------- | -------------- | -------------- | ---- ------------ 0-- |
| ----- 4 ----- 0-- | ----- 4 ----- 0-- | ----- 4 ----- 0-- | ---- -4 ----- 0 ------- |
| --2 ----- 2 ----- | -------------- | --2 ----- 2 ----- | ---- --------------- |
| -------------- | --3 ----- 3 ----- | -------------- | --3- ---- 3 ---------- | 
                 D / AD / A Gmaj7 (no3rd)
| -------------- | -------------- | -------------- | ---- --------------- |
| -------------- | -------------- | -------------- | ---- --------------- |
| - (0) ---------- | -------------- | -------------- | ---- --------------- |
| ----- 4 ----- 0-- | ----- 4 ----- 0-- | ----- 4 ----- 0-- | ---- --------------- |
| --2 ----- 2 ----- | --0 ----- 0 ----- | -------------- | ---- -2 ----- 2 ------- |
| -------------- | -------------- | --3 ----- 3 ----- | --0- ---- 2 ---------- |


   Си минорBm Gmaj7 (no3rd) си минорBm
| -------------- | -------------- | -------------- | ---- --------------- |
| -------------- | -------------- | -------------- | ---- --------------- |
| * ------------- | -------------- | -------------- | ---- ---------- 0 ---- |
| * ---- 4 ----- 0-- | ----- 4 ----- 0-- | ----- 4 ----- 0-- | ---- -4 ----- 0 ------- |
| --2 ----- 2 ----- | -------------- | --2 ----- 2 ----- | ---- --------------- |
| -------------- | --3 ----- 3 ----- | -------------- | --3- ---- 3 ---------- |


                  D / AD / A Gmaj7 (no3rd) [1.N.C]
| -------------- | -------------- | -------------- | ---- --------------- |
| -------------- | -------------- | -------------- | ---- --------------- |
| -------------- | -------------- | -------------- | ---- -------------- * |
| ----- 4 ----- 0-- | ----- 4 ----- 0-- | ----- 4 ----- 0-- | ---- -------------- * |
| --2 ----- 2 ----- | --0 ----- 0 ----- | -------------- | ---- -2 ----- 2 ------- |
| -------------- | -------------- | --3 ----- 3 ----- | --0- ---- 2 ---------- | 
 [2. N.C] си минор BM Gmaj7 (no3rd)
| --------------------------- | --------------------- - | ----------------------- |
| --------------------------- | --------------------- - | ----------------------- |
| --------------------------- | --------------------- - | ----------------------- |
| --------------------------- | ----- 4 ----- 0--0--4 --- - | ----- 4 ----- 0--4--4--0-- |
| ----- 2 ----- 2 ----- 2--2h5--2- | --2 ----- 2 ----------- 0- | ----------------------- |
| --0 ----- 2 ----- 0 ------------ | --------------------- - | --3 ----- 3 -------------- |


   Си минорBm Gamj7 си минорBm
| ----------------------- | ----------------------- | - ---------------------- |
| ----------------------- | ----------------------- | - ---------------------- |
| ----------------------- | ----------------------- | - ---------------------- |
| ----- 4 ----- 0--0--4 ----- | ----- 4 ----- 0--4--4--0-- | - ---- 4 ----- 0--0--4--0-- |
| --2 ----- 2 ----------- 0-- | ----------------------- | - -2 ----- 2 -------------- |
| ----------------------- | --3 ----- 3 -------------- | - ---------------------- |


  D / AD / A Gamj7 (E minorEm)
| ----------------------- | ----------------------- | - ------------------ |
| ----------------------- | ----------------------- | - ------------------ |
| -------------------- 0-- | - (0) ------------------- | - ------------------ |
| ----- 4 ----- 0--4--4 ----- | ----- 4 ----- 0--0--4--0-- | - ---- 2h5--2 -------- |
| --0 ----- 0 -------------- | ----------------------- | - --------------- 4-- |
| ----------------------- | --3 ----- 3 -------------- | - -0 ---------- 2 ----- |


2 гтп
-------------------------------------------------- ---------------------
  G5G5 A5A5 (D MajorD) Riff A augmentedA (G + G)
| ----------------------- | ----------------------- | - ------------------------- |
| ----------------------- | ----------------------- | - ------- 0h4p0 --- 0h4p0 ----- |
| ----------------------- | * -------- 0--7 ---------- | - ------------ 4 -------- 0 --- |
| --------- 0 ------------- | * ----- 7 ------------- 5-- | - -5 ----------------------- |
| ----- 5 ------------ 7 ---- | --- 5 ------------------- | - ------------------------- |
| --3 --------- 3--5 ------- | ----------------------- | - ------------------------- |

| ----------------------- | ----------------------- | - ------------------------- |
| ----------------------- | ----------------------- | - ------------------------- |
| ----------------------- | * -------- 0--7 ------- 7-- | - -9--7--5--4 ---------- 4 --- |
| ----------------------- | * ----- 7 ---------------- | - -10-9--7--5 ---------- 5 --- |
| ----------------------- | --- 5 ------------------- | - ------------------------- |
| ----------------------- | ----------------------- | - ------------------------- |

-------------------------------------------------- -----------------------


  (FF) [1.(E minorEm)] [2. (E minorEm) N.C end Riff A augmentedA
| ----------- 1 -------- | -------------- 0 ------ | ------ ------------ |
| ----- 1 -------- 1 ----- | ----- 0 ----- 0 ----- 0 --- | ----- 0 ----- 0 ------ |
| -------- 0 -------- 0-- | -------- 0 ----------- * | ------ --0 --------- |
| --3 ----------------- | --2 ----------------- * | --2 --- ------------ |
| -------------------- | --------------------- | ------ ------- / 3 --- |
| -------------------- | --------------------- | ------ ------------ |


           играть только второй раз
| ----------------- * - | --------------------- | ------ ------------ |
| ----------- 0--1--0-- | --0--1--0 ------------ | ------ ------------ |
| --2 ----- 2--0--2--0-- | --0--2--0 ----------- * | --2 --- ------------ |
| --3 ----- 3 ----------- | -------------------- * | --3--2 ------------ |
| -------------------- | --------------------- | ------ ------------ |
| -------------------- | --------------------- | ------ ------------ |


-------------------------------------------------- ---------------

Потом соло:

  1 2 3 4 1 2 3 4 1 2 3
4
| ----------------------- | ------------------------- ----- | -------------------- |
| ----------------------- | ----- 3p2 ----- 3p2 --------- 3 --- - | -3p2 ---------------- |
| --------- 2 --- 4b6b4 ----- | --------- 4 ------- 2 ----------- - | ----- 4 -------------- |
| ----- 2h5 --------------- | --------------------------- --- | -------------------- |
| ----------------------- | ------------------------- ----- | -------------------- |
| ----------------------- | ------------------------- ----- | -------------------- |


    1 2 3 4 1 2 3 4
| ------------------------------------- | ----------- ----------------- |
| ----- 75 --- 54 --- 2х4п2--0х3п0 -------- | ----------------------- -2х4- |
| --------- 7 ---------------------- 0h3-- | -2/4 --------- ----- 2/4 ------- |
| ------------------------------------- | ----------- ----------------- |
| ------------------------------------- | ----------- ----------------- |
| ------------------------------------- | ----------- ----------------- |


    1 2 3 4 1 2 3 4 1 2
| --------------------------- | --------------------- ---- | ------------- |
| -2 ------------- 2 --- 3p2 ----- | ----------------------- - | ------------- |
| --------- 2/4 ----------- 2 --- | -2/4 ----------------- ---- | ------------- |
| --------------------------- | --------------------- ---- | ------------- |
| --------------------------- | --------------------- ---- | ------------- |
| --------------------------- | --------------------- ---- | ------------- |


    1 2 3 4 1 2 3 4
| -----------------} 14 --- 19 ---- | -17-15-14-15 ------------- ------- |
| ----------------- {x ---------- | ------------- 15 ----- ------------ |
| -----------------} x ---------- | ------------------- ------------- |
| ----------------- {x ---------- | ------------------- ------------- |
| ----------------------------- | ------------------- ------------- |
| ----------------------------- | ------------------- ------------- |


    1 2 3 4 1 2 3 4
| -------------------------------- | ---------------- ----------------- |
| -------------------------------- | ---------------- ----------------- |
| ----- 7p6-7 ----- 9p7-9 ------- 11p9- | -11 ---- 11/12 --- 12 --- 11 ------ ----- |
| -------------------------------- | ---------------- ----------------- |
| -------------------------------- | ---------------- ----------------- |
| -------------------------------- | ---------------- ----------------- |


    1 2 3 4 1 2
| --------------------------------------------- | --- ------------- 12 -----
| ---------------------------------- 12 --------- | ---- 12-14 --- 15 ---------
| ----------- 11-12-14 --------- 11-12 ------------ | -11 ------ --------------
| -------- 12 --------------- 12 --------------- 12- | ------ -----------------
| ----- 14 --------------- 14 --------------- 14 ---- | ------ -----------------
| --------------------------------------------- | --- --------------------


    3 4 1 2 3 4
 ----------------------- | -------------------------- ---- |
 --- 15 --- 14 --- 12 --- 14 --- | -14 ----- 15-12 ----------------- |
 ----------------------- | -------------------------- ---- |
 ----------------------- | -------------------------- ---- |
 ----------------------- | -------------------------- ---- |
 ----------------------- | -------------------------- ---- |


[Теперь сыграйте стихи с обоими Ри.Рис. Одновременно для
стихи. ]
[(Рис. 1 немного меняется, когда вы играете на открытой 3-й струне на
]
[конец 1-й строки табл. Просто оставьте эту заметку. Где это
в  ]
[куплеты, слайд делается на 2 нижних струнах с 3-й по
5-е]
[беспокойство
{3/5}). ]


Си минорBm Gmaj7 (no3rd) си минорBm
Gmaj7 (№3)
  Я ничего не могу вспомнить, не могу сказать, правда ли это или
мечтать
Си минорBm D / AD / A Gmaj7 (no 3rd) N.С.
  глубоко внутри я чувствую, что кричу, эта ужасная тишина останавливает меня
Си минорBm Gmaj7 (no3rd) си минорBm Gmaj7 (no3rd)
  Теперь, когда война со мной окончена, я просыпаюсь, я не вижу
Си минорBm D / AD / A Gmaj7 (no 3rd) N.C.
  что мне мало что осталось. Теперь нет ничего настоящего, кроме боли!


[Далее идет припев. Просто пауэр-аккорды. ]

 G5G5 A5A5 B5B5 A5A5 G5G5 F # 5F # 5 B5B5 A5A5
 Затаив дыхание, я желаю смерти
 B5B5 C # 5C # 5 B5B5 A5A5 (5-я строка:) - 3 --- 4 ---- 5 ---
        О, пожалуйста, разбуди меня Бог!


[Одна гитара держит эту последнюю ноту навсегда.Другой играет Riff A augmentedA
дважды   ]
[(1-е окончание, 2-е

окончание). ]


Си минорBm Gmaj7 (no3rd) си минорBm Gmaj7 (no3rd)
  Вернувшись в утробу, в жизни насосы многое реально, что я должен чувствовать
Си минорBm D / AD / A Gmaj7 (no 3rd) N.C.
Но не могу рассчитывать на то, чтобы открыть взгляд на то время, когда я буду жить

Си минорBm Gmaj7 (no3rd) си минорBm
Gmaj7 (№3)
Кормится через трубку, которая застревает во мне, как новинка военного времени
Си минорBm D / AD / A Gmaj7 (no 3rd) N.С.
  привязан к машинам, которые заставляют меня отрезать эту жизнь от меня.


 G5G5 A5A5 B5B5 A5A5 G5G5 F # 5F # 5 B5B5 A5A5
 Затаив дыхание, я желаю смерти
 B5B5 C # 5C # 5 B5B5 A5A5 (5-я строка:) - 3 --- 4 ---- 5 ---
        О, пожалуйста, разбуди меня Бог!


[классическое соло]
| ---------------------------- | -------------------- - | ---------------------- |
| ------------- 10p7 ----- 7 ----- | -10 ----- 10 --- 8 --- 7 ---- | -7h8p7 ---------------- |
| ------------------ 7 --------- | -------------------- 9- | -------- 7 ------------- |
| ---------------------------- | -------------------- - | ---------------------- |
| - (5) ------------------------ | -------------------- - | ---------------------- |
| ---------------------------- | -------------------- - | ---------------------- |


| - / 10-8-7 ----- 7 --- 8- | --------- 17p14 ----- 14- | -17 --- 17-15--14- --15p14 -------- |
| --------- 10 -------- | -8 ~~~~~ --------- 15 ---- | -------- ----------------------- |
| ------------------- | ---------------------- | ------ ------------------------- |
| ------------------- | ---------------------- | ------ ------------------------- |
| ------------------- | ---------------------- | ------ ------------------------- |
| ------------------- | ---------------------- | ------ ------------------------- |


| ------------------ 15--17-- | --19п17п15-19п17п15-19п17п15-14-15 ---- 14 ------- |
| -15 ------ 15--19 ----------- | ------------------------- ---------- 17 ---- 15 ---- |
| -------------------------- | ---------------------- ------------------------- |
| -------------------------- | ---------------------- ------------------------- |
| -------------------------- | ---------------------- ------------------------- |
| -------------------------- | ---------------------- ------------------------- |


| ------ | ------------------------------- | ---------- ------------------------- |
| ------ | - / 8 --- 8--87 ------------------- | - / 13 ---- 13 --- 13 --- 13 --- 12 ---------- |
| ------ | - / 7 --- 7--7 ---- 7 ---------------- | - / 12 ---- 12-- -12 --- 12 --- 12 ---------- |
| ------ | ------------------------------- | ---------- ------------------------- |
| ------ | ------------------------------- | ---------- ------------------------- |
| ------ | ------------------------------- | ---------- ------------------------- |


    Т Т Т Т Т Т
| --- 20п17п13 --- 20п17п13 --- 20п17п13 --- 20п17п13 --- 20п17п13 --- 20п17п13 -------- |
| ------------------------------------------------- ------------------------- |
| ------------------------------------------------- ------------------------- |
| ------------------------------------------------- ------------------------- |
| ------------------------------------------------- ------------------------- |
| ------------------------------------------------- ------------------------- |

[T: = нажмите краем кирки]

    Т Т
| --- 20п12х23п12 --- 20п12х23п12- |
| ----------------------------- |
| ----------------------------- |
| ----------------------------- |
| ----------------------------- |
| ----------------------------- |

G5G5 A5A5 B5B5 A5A5 G5G5 F # 5F # 5 B5B5
Теперь мир ушел, я всего лишь один.A5A5 B5B5 C # 5C # 5 B5B5 A5A5 B5B5 C # 5C # 5
Боже, помоги мне!

G5G5 -A5-B5 -A5-G5-F # 5 -B5 -A5-B5-C # 5-B5-A5-B5-C # 5
Затаив дыхание, я желаю смерти. О, пожалуйста, проснись Бог

G5-A5-B5-A5-G5-F # 5-B5
меня!

  A minorAm G + G BB до мажорC
------------- | ---------------- | ------------- | ----- ------- |
------------- | ---------------- | ------------- | ----- ------- |
------------- | ---------------- | -4 ----- 4 ----- | --- 5- ---- 5-- |
--2--0--2--0- | ----- 5--5--5--5- | -4 ----- 4 ----- | --- 5- ---- 5-- |
--3--2--3--0- | --2--5--5--5--5- | -2 ----- 2 ----- | --- 3- ---- 3-- |
------------- | --3--3--3--3--3- | ---- 2 ----- 2-- | ----- -3 ----- |
                                              Играть 4 раза

  C / EC / E D MajorD B5B5 C5C5
------------------- | ---------------- | ------------- - | --------------------- |
------------------- | ---------------- | ------------- - | --------------------- |
------------------- | ---------------- | --- 4 ----- 4 --- - | -5--5-5 -------- 5 ----- |
--5--5--5--7--5 ---- | -4--4--4--5--4- | --- 4 ----- 4 ---- - | -5--5-5--5 ----- 5 ----- |
--7--7--7--7--7--5- | -5--5--5--5--5- | --- 2 ----- 2 ---- - | -3--3-3--3 ----- 3 ----- |
------------------- | ---------------- | ------ 2 ----- 2 - | ------------ 3 ----- 3-- |

                                                                Играть в
дважды

--------------- | ----------------- | ---------------- -------------------- |
--------------- | ----------------- | ---------------- -------------------- |
--------------- | ----------------- | ---------------- -------------------- |
--5 ------ (5) --- | -------------- 2-- | -------------- 2- (2) ------------- 2-3- |
--7 ------ (7) --- | -------------- 2-- | -------------- 2- (2) ------------- 2-3- |
--0 ------ (0) --- | --0-0-0-0-0-0-0-- | --0-0-0-0-0-0 --- ---- 0-0-0-0-0-0 ----- |
                   Играть 4 раза Играть 4 раза

-------------------------------- | ----------------- ------------------ |
-------------------------------- | ----------------- ------------------ |
-------------------------------- | ----------------- ------------------ |
-------------------------------- | ----------------- ------------- 2-3-- |
-------------- 2 --------------- 2- | -------------- 2-- ------------- 2-3-- |
--0-0-0-0-0-0-0 --- 0-0-0-0-0-0-0- | --0-0-0-0-0-0-0- -0-0-0-0-0-0 ------ |
    Темнота заключает меня в тюрьму все, что я вижу, абсолютный ужас
Я не могу-не могу жить, я не могу-не умереть В ловушке собственного тела, моей удерживающей клетки!

------------------------------------ | ------------- ----------------------- |
------------------------------------ | ------------- ----------------------- |
------------------------------------ | ------------- ----------------------- |
------------------------------------ | ------------- ----------------------- |
-------------- 7- (7) ------------- 7-8- | ------------- 5- (5) ------------- 5 / 8-- |
--0-0-0-0-0-0 ------- 0-0-0-0-0-0 ----- | -0-0-0-0-0-0- ------ 0-0-0-0-0-0 ------ |


------------------------------------ | ------------- ----------------------- |
------------------------------------ | ------------- ----------------------- |
------------------------------------ | ------------- ----------------------- |
------------------------------------ | ------------- ----------------------- |
-------------- 7- (7) ------------- 7-8- | ------------- 5- (5) ------------- 5 ---- |
--0-0-0-0-0-0 ------- 0-0-0-0-0-0 ----- | -0-0-0-0-0-0- ------ 0-0-0-0-0-0 --- 7-- |


--------------------------------- | ---------------- ------------------- |
--------------------------------- | ---------------- ------------------- |
--------------------------------- | ---------------- ------------------- |
--------------------------------- | ---------------- -------------- 2-3-- |
-------------- 2 --------------- 2-- | -------------- 2- -------------- 2-3-- |
--0-0-0-0-0-0-0 --- 0-0-0-0-0-0-0-- | --0-0-0-0-0-0-0- --0-0-0-0-0-0 ------ |
  Мина взяла мое зрение, моя речь взяла мой слух
  Взял меня за руки, взял мои ноги, взял мою душу, оставил меня с жизнью в

Двойное время
----------------------------------------- |
----------------------------------------- |
----------------------------------------- |
-------------- 2 -------------- 2 -------- 3-- |
-------------- 2 -------------- 2 -------- 3-- |
--0-0-0-0-0-0 ---- 0-0-0-0-0-0 ---- 0-0-0 ---- |
ад!____________

Ну наконец то:


Рифф до мажор
  EOODED F5F5
------------------------- | -------------------- |
------------------------- | -------------------- |
------------------------- | -------------------- |
--------------- 2 --------- | -------- 2 -------- 3-- |
--------------- 2 --------- | -------- 2 -------- 3-- |
--0-0-0-0-0-0 ----- 0-0-0- | --0-0-0 ---- 0-0-0 ---- |

 Сыграть Рифф до мажор 4 раза


Быстрое соло (КРУТО!).Хорошо, это выглядит сложно, но после небольшой практики ....

  Т Т Т Т Т Т Т Т
E-19p15p12--19p15p12-19p15p12-19p15p12-19p15p12-19p15p12-19p15p12-19p15p12- |
B ------------------------------------------------- ------------------------- |
ГРАММ------------------------------------------------- ------------------------- |
D ------------------------------------------------- ------------------------- |
А ------------------------------------------------- ------------------------- |
E ------------------------------------------------- ------------------------- |

 T: = постучать краем кирки; p: = оторвать палец или выбрать

  Т Т Т Т Т Т Т Т
E-20p15p12--20p15p12-20p15p12-20p15p12-20p15p12-20p15p12-20p15p12-20p15p12- |
B ------------------------------------------------- ------------------------- |
ГРАММ------------------------------------------------- ------------------------- |
D ------------------------------------------------- ------------------------- |
А ------------------------------------------------- ------------------------- |
E ------------------------------------------------- ------------------------- |
  Т Т Т Т Т Т Т Т


E ------------------------------------------------- ------------------------- |
B-19p15p12--19p15p12-19p15p12-19p15p12-19p15p12-19p15p12-19p15p12-19p15p12- |
ГРАММ------------------------------------------------- ------------------------- |
D ------------------------------------------------- ------------------------- |
А ------------------------------------------------- ------------------------- |
E ------------------------------------------------- ------------------------- |
  Т Т Т Т Т Т Т Т
E ------------------------------------------------- ------------------------- |
B-20p15p12--20p15p12-20p15p12-20p15p12-20p15p12-20p15p12-20p15p12-20p15p12- |
ГРАММ------------------------------------------------- ------------------------- |
D ------------------------------------------------- ------------------------- |
А ------------------------------------------------- ------------------------- |
E ------------------------------------------------- ------------------------- |

  Т Т Т Т Т Т Т Т
E ------------------------------------------------- ------------------------- |
B-17p13p10--17p13p10-17p13p10-17p13p10-17p13p10-17p13p10-17p13p10-17p13p10- |
ГРАММ------------------------------------------------- ------------------------- |
D ------------------------------------------------- ------------------------- |
А ------------------------------------------------- ------------------------- |
E ------------------------------------------------- ------------------------- |

  Т Т Т Т Т Т Т Т
E ------------------------------------------------- ------------------------- |
B-18p13p10--18p13p10-18p13p10-18p13p10-18p13p10-18p13p10-18p13p10-18p13p10- |
ГРАММ------------------------------------------------- ------------------------- |
D ------------------------------------------------- ------------------------- |
А ------------------------------------------------- ------------------------- |
E ------------------------------------------------- ------------------------- |

  Т Т Т Т Т Т Т Т Т Т Т Т
E --------------------------------------- | --------- ------------------------- |
Б-17п12х24-17п12-17п10-17п12-17п10-17п8- | -17п10-17п8-17п7-17п8-17п7-17п5 --- |
G --------------------------------------- | --------- ------------------------- |
D --------------------------------------- | --------- ------------------------- |
А --------------------------------------- | --------- ------------------------- |
E --------------------------------------- | --------- ------------------------- |

E ------------------------------ 14-14-14- | -15-15-15-17-17- 17 ----------------
B- / 12-12-12-12-12-12-12-12 ----------- | ----------------- ---- 15-15-15 ------
G --------------------------------------- | --------- --------------------------
D --------------------------------------- | --------- --------------------------
А --------------------------------------- | --------- --------------------------
E --------------------------------------- | --------- --------------------------

E-17-17-17-17- | -22 ^ 24 ------- 22 ^ 24 ---- 22 ^ 24 ~ | ~~~~~~~~ -------- ------- 15 ----- |
B ------------- | ---------------------------- | ------ -------- / 17 -------------- |
G ------------- | ---------------------------- | ------ ------------------------- |
D ------------- | ---------------------------- | ------ ------------------------- |
А ------------- | ---------------------------- | ------ ------------------------- |
E ------------- | ---------------------------- | ------ ------------------------- |

Э-17п15 --------------- 15х27п15 ------------- | -15х27п15 ------------- 15х27п15- -
В -------- 17-15-17-19 ----------- 17-15-17-19- | ---------- 17-15- 17-19 -----------
G ------------------------------------------ | ------ --------------------------
D ------------------------------------------ | ------ --------------------------
А ------------------------------------------ | ------ --------------------------
E ------------------------------------------ | ------ --------------------------

E ----------- 15- | -17p15 ------------ 15-17p15 --------- 15h27 ---- |
В-17-17-19 ----- | -------- 15-17-19 ------------ 17--15 -------- - |
G -------------- | ---------------------------------- ---------- |
D -------------- | ---------------------------------- ---------- |
А -------------- | ---------------------------------- ---------- |
E -------------- | ---------------------------------- ---------- |

E-19p17p15 ----- 19p17p15 ----- 19p17p15 ------ 19p17p15 ---------- |
В ---------- 15 ----------- 15 ------------ 15 ------------ 15 ------ |
ГРАММ------------------------------------------------- ---------- |
D ------------------------------------------------- ---------- |
А ------------------------------------------------- ---------- |
E ------------------------------------------------- ---------- |

E-19p17 -------- 19p17 -------- 19p17 --------- 19p17p15 ---------- |
В ---------- 15 ----------- 15 ------------ 15 ------------- ------- |
ГРАММ------------------------------------------------- ---------- |
D ------------------------------------------------- ---------- |
А ------------------------------------------------- ---------- |
E ------------------------------------------------- ---------- |

E ------- 15 ------- 15 ------- 15 ------- 15- | -18 ^ 19-15 ------- 15- 18 ^ 19-15 ------- 15- |
B-18 ^ 20 ---- 18 ^ 20 ---- 18 ^ 20 ---- 18 ^ 20 ---- | ---------- 18 ^ 20 ------ ------- 18 ^ 20 ---- |
G ------------------------------------- | ----------- -------------------------- |
D ------------------------------------- | ----------- -------------------------- |
А ------------------------------------- | ----------- -------------------------- |
E ------------------------------------- | ----------- -------------------------- |


E-19p17p15-17 ---- 17p15 ---- 15 ---------- | ------------------------ ------------- |
В ---------------------- 19 ------------- | -19п17п15-17 ----- 15х27п1513-- 15 ----- |
G ------------------------------------- | ----------- -------------------------- |
D ------------------------------------- | ----------- -------------------------- |
А ------------------------------------- | ----------- -------------------------- |
E ------------------------------------- | ----------- -------------------------- |


| ------------------------------------------ | ------ -------------------------- |
| -13h25p1312--13 ----- 12h23p12 ---- 12 ------- | ------------------------- ------- |
| ------------------------------ 14 ---- 14p12- | -14p12 ---- 12 ---- 12--14 ^ -14 ^ -14 ^ - |
| ------------------------------------------ | ------ -14 ---- 14 ----------------- |
| ------------------------------------------ | ------ -------------------------- |
| ------------------------------------------ | ------ -------------------------- |


| ---------------------------- | -------------------- - | ------------------------ |
| ---------------------------- | -------------------- - | ------------------------ |
| -14 ^ 16-14 ^ 16 ----- v14p12 ----- | -12 ----- 12 ----------- | --------- --------------- |
| ------------------------- 14- | ---- 14 ------ 14-13-12- | --- --------------------- |
| ---------------------------- | -------------------- - | -14-13-12-10 ~~~~~ ------- |
| ---------------------------- | -------------------- - | ------------------------ |


| --------------------------- | --------------------- ------ | ------------------- |
| --------- 15 ^ ---------- 15 ^ - | --------- 15 ^ ---------- 15 ^ - | -17 ^ -v - ^ - v - ^ - 17 ^ v ^ - |
| --------- 15 ^ ---------- 15 ^ - | --------- 15 ^ ---------- 15 ^ - | -17 ^ -v --- v - ^ - 17 ^ v ^ - |
| -17--17 -------- 17--17 ------ | -17--17 -------- 17--17 ------ | - ------------------ |
| --------------------------- | --------------------- ------ | ------------------- |
| --------------------------- | --------------------- ------ | ------------------- |

|
|

| --------------------------- | --------------------- ------ | ------------------- |
| --------------------------- | --------------------- ------ | ------------------- |
| --------------------------- | ----------.---------- |
| --------------- 17 ---- | -17--17 ------ 17--17 ----- | ------- --------------------- |
| --------------------- | ------------------------ | - -------------------------- |
| --------------------- | ------------------------ | - -------------------------- |


|
|
| --------------------- | ------------------------ | - ------------------------- |
| --------------------- | ------------------------ | - ------------------------- |
| --------------------- | ------------------------ | - --------.- / -------------- |
| --------------------- | ------- 5 ----------- 5 ---- | - --------- / -.20 ~~~~~~ - ||
| ---------------------------------------- | -------- ------------------------- ||
| ---------------------------------------- | -------- ------------------------- ||
| ---------------------------------------- | -------- ------------------------- ||
| ---------------------------------------- | -------- ------------------------- ||

|
|
| ---------------------------------------- | -------- ------------------------- ||
| ---------------------------------------- | -------- ------------------------- ||
| ---------------------------------------- | -------- -------.- / --------------- ||
| ---------------------------------------- | -------- -------- / -.-------------- ||
| -------------------- 3 -------- 3 ---------- | -------- ------------------------- ||
| --1--1--1--1--1--1--1 -------- 1 ---------- | -------- ------------------------- ||

  PM .................. |

| ------------------------------------ | ------------ ------------------------ |
| ------------------------------------ | ------------ ------------------------ |
| ------------------------------------ | ------------ ------------------------ |
| ------------------------------------ | ------------ ------------------------ |
| --------------------------- 5-5-5 ---- | -5-5-5 ---- 4- 4-4 --- 3-3-3 --- 2-2-2 ----- |
| -3-3-3--3-3-3--3 -------------------- | ------------ ------------------------ |



Рифф до мажор
  EOODED F5F5
------------------------- | -------------------- |
------------------------- | -------------------- |
------------------------- | -------------------- |
--------------- 2 --------- | -------- 2 -------- 3-- |
--------------- 2 --------- | -------- 2 -------- 3-- |
--0-0-0-0-0-0 ----- 0-0-0- | --0-0-0 ---- 0-0-0 ---- |

[Сыграть 9 раз рифф до мажор]

E ------------------------------------ | ------------ ------------------------ |
B ------------------------------------ | ------------ ------------------------ |
G ------------------------------------ | ------------ ------------------------ |
D ------------------------------------ | ------------ ------------------------ |
А --------------------------- 5-5-5 ---- | -5-5-5 ---- 4- 4-4 --- 3-3-3 --- 2-2-2 ----- |
E-0-0-0--0-0-0-0 -------------------- | ------------ ------------------------ |


[ два
гитары]
E ----------------------- 5--5--5 ------ | ------------ ------ 7--7--7--5 -------- |
В-8--8--8--7 ^ ----------- 7--7--7 ------ | --8 ^ -------- 5 ----- 8--8--8--7 -------- |
G-9--9--9--7 ^ ---- 7 ------------------- | --8 ^ -------- ------------------------ |
D ---------------- 9 ------------------- | ------------ 9 ----------------------- |
А ------------------------------------ | ------------ ------------------------ |
E ------------------------------------ | ------------ ------------------------ |


E-7--5 ----- 5 ------- 5 ----------------- | ------------ ------------------------ |
В-8--7--8--7 ------- 7--8--7--8 -------- | -8--7--5--7- ------- 7--5 ----- 5 ------- |
Г ------- 9 ------------- 9--7--9 -------- | -9--7--6--7- ------- 7--6--7--6 ------- |
D ------------------------------------ | ------------ ------------- 9 ---------- |
А ------------------------------------ | ------------ ------------------------ |
E ------------------------------------ | ------------ ------------------------ |


E ----------------------- 5--5--5 ------ | ------------ ------ 7--7--7--5 -------- |
В-8--8--8--7 ^ ----------- 7--7--7 ------ | --8 ^ -------- 5 ----- 8--8--8--7 -------- |
G-9--9--9--7 ^ ---- 7 ------------------- | --8 ^ -------- ------------------------ |
D ---------------- 9 ------------------- | ------------ 9 ----------------------- |
А ------------------------------------ | ------------ ------------------------ |
E ------------------------------------ | ------------ ------------------------ |

E-7--5 ----- 5 ------- 5 ----------------- | -8--7--5--7- ------- 7--5 ----- 5 ------- |
В-8--7--8--7 ------- 7--8--7--8 -------- | -10-8--7--8-- ------ 8--7--8--7 ------- |
Г ------- 9 ------------- 9--7--9 -------- | ------------ ------------- 9 ---------- |
D ------------------------------------ | ------------ ------------------------ |
А ------------------------------------ | ------------ ------------------------ |
E ------------------------------------ | ------------ ------------------------ |


E ----------------------- 5--5--5 ------ | ------------ ------ 7--7--7--5 -------- |
В-8--8--8--7 ^ ----------- 7--7--7 ------ | --8 ^ -------- 5 ----- 8--8--8--7 -------- |
G-9--9--9--7 ^ ---- 7 ------------------- | --8 ^ -------- ------------------------ |
D ---------------- 9 ------------------- | ------------ 9 ----------------------- |
А ------------------------------------ | ------------ ------------------------ |
E ------------------------------------ | ------------ ------------------------ |


E-7--5 ----- 5 ------- 5 ----------------- | ------------ ------------------------ |
В-8--7--8--7 ------- 7--8--7--8 -------- | -8--7--5--7- ------- 7--5 ----- 5 ------- |
Г ------- 9 ------------- 9--7--9 -------- | -9--7--6--7- ------- 7--6--7--6 ------- |
D ------------------------------------ | ------------ ------------- 9 ---------- |
А ------------------------------------ | ------------ ------------------------ |
E ------------------------------------ | ------------ ------------------------ |


E ----------------------- 5--5--5 ------ | ------------ ------ 7--7--7--5 -------- |
В-8--8--8--7 ^ ----------- 7--7--7 ------ | --8 ^ -------- 5 ----- 8--8--8--7 -------- |
G-9--9--9--7 ^ ---- 7 ------------------- | --8 ^ -------- ------------------------ |
D ---------------- 9 ------------------- | ------------ 9 ----------------------- |
А ------------------------------------ | ------------ ------------------------ |
E ------------------------------------ | ------------ ------------------------ |


E-7--5 ----- 5 ------- 5 ----------------- | ------------ ------------------------ |
В-8--7--8--7 ------- 7--8--7--8 -------- | -8--7--5--7- ------- 7--5 ----- 5 ------- |
Г ------- 9 ------------- 9--7--9 -------- | -9--7--6--7- ------- 7--6--7--6 ------- |
D ------------------------------------ | ------------ ------------- 9 ---------- |
А ------------------------------------ | ------------ ------------------------ |
E ------------------------------------ | ------------ ------------------------ |


E ------------------------------------ | ------------ ------------------------ |
В-5 ---------------------------------- | ------------ ------------------------ |
G-6--7--6--7 ------- 7--6--4--6 -------- | -6--4--2--4- ------- 4--2--0--2 ------- |
D ---- 9--7--9 ------- 9--7--5--7 -------- | -7--5--4--5- ------- 4--2--0--2 ------- |
А ------------------------------------ | ------------ ------------------------ |
E ------------------------------------ | ------------ ------------------------ |


[ два
гитары]


Рифф до мажор
  EOODED F5F5
------------------------- | -------------------- |
------------------------- | -------------------- |
------------------------- | -------------------- |
--------------- 2 --------- | -------- 2 -------- 3-- |
--------------- 2 --------- | -------- 2 -------- 3-- |
--0-0-0-0-0-0 ----- 0-0-0- | --0-0-0 ---- 0-0-0 ---- |

[Проиграть рифф до мажор до 4 раз]


  G5G5
------------------------- | -------------------- |
------------------------- | -------------------- |
------------------------- | -------------------- |
------------- 5 -------- 5-- | -------- 5 -------- 5-- |
------------- 5 -------- 5-- | -------- 5 -------- 5-- |
--3 ----- 3 ---- 3--3--3--3-- | --3--3--3--3--3--3-- |


  EOODED F5F5
------------------------- | -------------------- |
------------------------- | -------------------- |
------------------------- | -------------------- |
--------------- 2 --------- | -------- 2 -------- 3-- |
--------------- 2 --------- | -------- 2 -------- 3-- |
--0-0-0-0-0-0 ----- 0-0-0- | --0-0-0 ---- 0-0-0 ---- |


  G5G5
------------------------- | -------------------- |
------------------------- | -------------------- |
------------------------- | -------------------- |
------------- 5 -------- 5-- | -------- 5 -------- 5-- |
------------- 5 -------- 5-- | -------- 5 -------- 5-- |
--3 ----- 3 ---- 3--3--3--3-- | --3--3--3--3--3--3-- |


  EOODED F5F5
------------------------- | -------------------- |
------------------------- | -------------------- |
------------------------- | -------------------- |
--------------- 2 ------ 2-- | -------- 3 -------- 3-- |
--------------- 2 ------ 2-- | -------- 3 -------- 3-- |
--0-0-0-0-0-0 --------- 0-- | --1--1--1--1--1--1-- |
[сыграйте 2 такта 3 раза]


  EOODED G5G5
------------------------- | -------------------- | --- ----------------- |
------------------------- | -------------------- | --- ----------------- |
------------------------- | -------------------- | --- ----------------- |
--------------- 2 ------ 2-- | -------- 5 -------- 5-- | --- ----- 5 -------- 5-- |
--------------- 2 ------ 2-- | -------- 5 -------- 5-- | --- ----- 5 -------- 5-- |
--0-0-0-0-0-0 --------- 0-- | --3--3--3--3--3--3-- | --3 --3--3--3--3--3-- |


  EOODED F5F5
------------------------- | -------------------- |
------------------------- | -------------------- |
------------------------- | -------------------- |
--------------- 2 --------- | -------- 2 -------- 3-- |
--------------- 2 --------- | -------- 2 -------- 3-- |
--0-0-0-0-0-0 ----- 0-0-0- | --0-0-0 ---- 0-0-0 ---- |

   Eve5

E ------------------------------------ | ------------ ----------------------- ||
B ------------------------------------ | ------------ ----------------------- ||
G ------------------------------------ | ------------ ----------------------- ||
D - 2-2-2--2-2-2--2 ------------ 2-2-2-- | --2-2-2--2-- ----------------------- ||
А - 2-2-2--2-2-2--2 ------------ 2-2-2-- | --2-2-2--2-- ----------------------- ||
E - 0-0-0--0-0-0-0 ------------ 0-0-0-- | --0-0-0--0-- ----------------------- ||


КОНЕЦ 

One tab

"One" из четвертого альбома Metallica под названием "...И справедливость для всех ». Выпущенная как сингл в 1988 году, это была первая песня Metallica, вошедшая в топ-40 хит-парадов Billboard. Песня начинается медленно и чисто, но становится тяжелее и быстрее, что приводит к тяжелому соло. Кирка Хэммета и парную гитарную секцию Кирка Хэммета и Джеймса Хэтфилда. Проверьте табулатуры Metallica One ниже.

«One» наполнен хорошими риффами и отличными соло. Неудивительно, почему она входит в число любимых концертных композиций Metallica. При живом исполнении гитары настраиваются на один полутон ниже.Эта и другие песни на "... And Justice for All", как вы можете видеть на вкладках One ниже, являются наиболее сложной структурой песен в дискографии Metallica. Metallica сняли промо-видео на эту песню, их первую песню, которая представлена ​​в двух версиях: одна отредактированная, а вторая - с сценами из фильмов.

Другие версии One

Metallica Guitar PRO табы, скачать gtp файл бесплатно, аккорды, ноты

(117.80 Кб) | Добавил: Malfoy

(5.75 Кб) | Добавил: JAMIS

(14.91 Кб) | Добавил: wilco

(17.79 Кб) | Добавил: ivaeg

(148.00 Кб) | Добавил: Lare

(134.20 Кб) | Добавил: Domino

(29.61 Кб) | Добавил: ivaeg

(152.72 Кб) | Добавил: spenk

(65.47 Кб) | Добавил: LumiX

На этой странице вы найдете табы Guitar Pro для всех песен группы Metallica.Вы можете выбрать песню группы Metallica, которую хотите, и бесплатно скачать Guitar Pro Tab с этой песней.

Guitar Pro 6

Добро пожаловать на gtptabs.com! Здесь вы найдете бесплатные табы для Guitar Pro.

Хэл Леонард Металлика:. . . Песенник для гитары And Justice For All

{ "pageType": "item_page", "placements": "3", "placeNames": "rr1, rr2, OOS2" }

{ "slidesToShow": 6, «slidesToScroll»: 6, "бесконечный": ложь, "точки": правда, "lazyLoad": "ondemand", "pauseOnHover": правда, "стрелки": ложь, "centerMode": ложь, "отзывчивый": [ {"breakpoint": 1024, "settings": {"slidesToShow": 5, "slidesToScroll": 5}}, {"breakpoint": 768, "settings": {"slidesToShow": 4, "slidesToScroll": 4}}, {"точка останова": 640, "настройки": {"slidesToShow": 2, "slidesToScroll": 2}} ] }

24.99 24,99 долл. США

Значок очков лояльности

Очки лояльности Значок

Заработайте 200 призовых баллов

(2 доллара США на счете) Подробнее

Присоединяйтесь бесплатно и начните зарабатывать 8% с каждой покупки. Участники программы Rewards также получают предложения с двойным и тройным баллами, доступ к сделкам только для участников, а также выделенную телефонную линию для консультантов по Gear и купон на 25 долларов на ваш день рождения - и все это в подарок.

Присоединись бесплатно Поделитесь своим местоположением Заказ в пределах 7 часов 48 мин. 12 сек.

На складе, готово к отправке Заказы размещаются до 3 р.м. ET обычно отправляют в тот же рабочий день (кроме выходных и праздничных дней).

Корабль Изменить местоположение site1sku

4000000000
правда MFI = 8 правда Изменить местоположение Инвентарь Msg Check MarkInventory Msg ExclamationIn Checkout PromoInventory Msg Download Icon
  • Транспортная компания позвонит вам, чтобы назначить дату и время доставки
  • Кто-то должен быть дома, чтобы получить посылку
  • Убедитесь, что вы измерили свой вход и у вас есть помощь, чтобы нести предмет в
На складе, готово к отправке

Большинство заказов размещаются до 3 р.м. ET отправляет в тот же день (кроме выходных и праздничных дней).

in_stock Новый

1234567891011121314151617181920 Добавить в корзину

×

Хэл Леонард Металлика:. . . Песенник для гитары And Justice For All

24,99 доллара США
  • Бесплатная доставка
  • Самые популярные
  • Лучший продавец
  • Низшая цена
Значок Шеврон Правый {"id": "

4", "categoryId": "site1JSAAA", "pageName": "Metallica: ... And Justice For All Guitar Tab Songbook", "pageUrl": "/ книги-ноты-медиа / хал-леонард-металлика-и-справедливость-для-всех-гитара-таб-песенник", «thumbnailUrl»: «https: // static.musiciansfriend.com/derivates/4/999/309/147/DV017_Jpg_Thumbnail_1274034473363_A.jpg ", "addToCartUrl": "/ книги-лист-музыка-медиа / хал-леонард-металлика-и-справедливость-для-всех-гитара-таб-песенник", "hasFeatures": "0", "isAccessory": "0", "message": "Эта гитарная табулатура Metallica является подходящим фолиантом к их мультиплатиновому альбому ... А Justice For All включает в себя все 9 треск-метал-песен: & # 34; & # 34; Blackened, & # 34; & # 34; Dyers Eve, & # 34; & # 34; Eye Of The Beholder, & # 34; & # 34; Harvester Of Sorrow, & # 34; & # 34; One, & # 34; & # 34; Истерзанные концы здравомыслия, & # 34; & # 34; Самая короткая соломинка, & # 34; & # 34; Жить - значит умереть & # 34; &.. . И справедливость для всех & # 34; Также включает введение Вольфа Маршалла. 95 стр. ", "value": "24,99", "priceMin": "24,99", "priceMax": "24,99", "priceSavingsMaxPrice": "0.00", "priceSavingsMaxPercent": "0", "inventory": "316", "бренд": "Хэл Леонард", "reviewStarImageUrl": "https://static.musICALfriend.com/img/brand/mf/cmn/Sprit-Sm-Stars.png", «reviewStarRating»: «4,5», "reviewStarRatingInteger": "9", "reviewHowManyReviews": "8", "usedOrNew": "новый", "прекращено": "0", "onOrder": "0", "оформление": "0", "canBeSold": "1", "accessoryCategories": "", "stickerText": ""}

{ "slidesToShow": 6, «slidesToScroll»: 6, "бесконечный": ложь, "точки": правда, "lazyLoad": "ondemand", "pauseOnHover": правда, "стрелки": ложь, "centerMode": ложь, "отзывчивый": [ {"breakpoint": 1024, "settings": {"slidesToShow": 5, "slidesToScroll": 5}}, {"breakpoint": 768, "settings": {"slidesToShow": 4, "slidesToScroll": 4}}, {"точка останова": 640, "настройки": {"slidesToShow": 2, "slidesToScroll": 2}} ] }

Обзор

Этот таббук для гитары Metallica является фолиантом, соответствующим их мультиплатиновому альбому .. . "And Justice For All " включает в себя все 9 хитов-металлических песен: "Blackened", "Dyers Eve", "Eye Of The Beholder", "Harvester Of Sorrow", "One", "The Frayed Ends Of Sanity", "The Shortest" Стро »,« Жить - значит умереть »и… и справедливость для всех». Также включает введение Вольфа Маршалла. 95 страниц.

{ "api_key": "fee5c893-11c4-4cc8-b419-02f8d404de16", "locale": "en_US", "merchant_group_id": "15229", "merchant_id": "815274", "page_id": "

4", "review_wrapper_url": "https: // www.musiciansfriend.com/write-review/pdp?pr_page_id=___PAGE_ID___ ", "ENABLE_CONTENT_COLLECTION_MODAL": ложь, "REVIEW_DISPLAY_LIST_TYPE": "КОНДЕНСИРОВАННЫЕ", "REVIEW_DISPLAY_PAGINATION_TYPE": "ВЕРТИКАЛЬНО", "style_sheet": "https://static.musICALfriend.com/cmn/brand/mf/productionCss/powerReviewsOverride.r.css?vId=ecmd-2021.3.1-0i&cb=3", "составные части": { "ReviewDisplay": "pr_review-display", «QuestionDisplay»: «pr_question-display» } }

{ "slidesToShow": 6, «slidesToScroll»: 6, "бесконечный": ложь, "точки": правда, "lazyLoad": "ondemand", "pauseOnHover": правда, "стрелки": ложь, "centerMode": ложь, "отзывчивый": [ {"breakpoint": 1024, "settings": {"slidesToShow": 5, "slidesToScroll": 5}}, {"breakpoint": 768, "settings": {"slidesToShow": 4, "slidesToScroll": 4}}, {"точка останова": 640, "настройки": {"slidesToShow": 2, "slidesToScroll": 2}} ] }

Магазин с другом

Бесплатная доставка
  • Бесплатная стандартная наземная доставка (48 смежных штатов, исключая некоторые излишки веса и бывшие в употреблении / винтажные предметы).
  • Заказы размещены до 15:00. ET обычно отправляют в тот же рабочий день.
Узнать больше 2 года бесплатной гарантии на гитары

На каждую гитару или бас-гитару, приобретенную у Musician's Friend (электрическую или акустическую, New или Open Box), предоставляется двухлетняя защита от дефектов производителя.

Свяжитесь с нами для получения подробной информации Мы здесь для вас

Наши консультанты по снаряжению готовы помочь вам на протяжении всего процесса покупок. Позвоните или поговорите в чате, чтобы получить консультацию специалиста и узнать о последних предложениях.

Связаться с нами

Наши консультанты по снаряжению готовы помочь.

Наш контактный центр в настоящее время закрыт.

Запросить обратный звонок Чат поддержки проактивного советника

Наши консультанты по снаряжению готовы помочь.

Начать Ищете что-нибудь еще? Найдите ответы в нашем Справочном центре

{"product": {"rep_id": "site1prod

4", "sku_rep_id": "site1sku

4000000000", "download": false, "price": "24,99", "name": "Хэл Леонард Metallica: ... И справедливость For All Guitar Tab Songbook "," sku_id ":"

4000000000 "," id ":"

4 "," stock ":" instock "," brand ":" Hal Leonard "}," dept ":" Книги, ноты & Медиа "," category ":" Табулатура "," subcategory ":" Табулатура для гитары "," pageName ":" product_detail "}

Metallica Enter Sandman Guitar Tab

Итак, вы хотите научиться гитаре? Почему бы не начать с одной из величайших песен всех времен, которая также входит в наш список « простых гитарных песен для начинающих ».«Enter Sandman» - песня калифорнийской хэви-метал группы Metallica. Продюсировал легендарный продюсер Боб Рок. Enter Sandman был выпущен в 1991 году как заглавный сингл и открывающий трек одноименного альбома группы Black. Кирк Хэммет, Ларс Ульрих и Джеймс Хэтфилд написали песню, а Хэтфилд набросал текст.

Metallica Enter Sandman Guitar Tab

 Intro: (Играть 12 раз)
======

1 | ------------------------------------------------ ---------------------------
2 | ------------------------------------------------ ---------------------------
3 | ------------------------------------------------ ---------------------------
4 | ------------ 5 ----------------------------------- ---------------------------
5 | -------- 7 --------------- 7 ----------------------- ---------------------------
6 | ---- 0 ----------- 6 --- 5 --------------------------- ---------------------------

Ритм-сбивка 1:
==============

1 | ------------------------------------------------ ---------------------------
2 | ------------------------------------------------ ---------------------------
3 | ------------------------------------------------ ---------------------------
4 | ------------------------------------------------ ---------------------------
5 | --2 --------------------------- / 7 ---------------- -------------- / 7 -----------
6 | --0 --- 0 --- 0 --- 0 --- 0 --- 0 --- 0 -------- 0 --- 0 --- 0 --- 0 --- 0 --- 0 --- 0 ---------------

                                     | ------------- 3x ------------ |

1 | ------------------------------------------------ ---------------------------
2 | ------------------------------------------------ ---------------------------
3 | ------------------------------------------------ ---------------------------
4 | ------------------------------------------------ ---------------------------
5 | ---------- 7 ------------------ 32 ------------- 7 ---- --------------- 32 -------
6 | --0 --- 0 ------ 6 --- 0 --- 0 --- 0 --- 1? ----- 0 --- 0 ------- 6 --- 5 --- 0 --- 0 --- 1? -------

    | ------------- 4x ------------- | | -------------- 8x ------------- |

                 При воспроизведении отрывков F5-E5 E5 не играет.* Пропустите отрыв F5-E5 на 8-м повторении.

Ритмическая сбивка 2:
==============

   E5 G5 E5 G5 E5 F # 5 G5 F # 5

             sl V PM ------------------ |

1 | ------------------------------------------------ ---------------------------
2 | ------------------------------------------------ ---------------------------
3 | ------------------------------------------------ ---------------------------
4 | ------------------------------------------------ ---------------------------
5 | --2 --- 2 ---- / 7 -------------- 5 ------- 5 ------- 4 --- 5 --- 4 -----------------------
6 | --0 --- 0 --------- 6 --- 5 ------ 3 --- 0 --- 3 --- 0 --- 2 --- 3 --- 2 -----------------------

    | ------- 3x -------- |

(Повторите ритмическую сбивку 2 один раз)

Ритмическая сбивка 3:
==============

    E5 F5 E5 F5 E5

        PM ------------------ | P PM ----------------------- | п

1 | ------------------------------------------------ ---------------------------
2 | ------------------------------------------------ ---------------------------
3 | ------------------------------------------------ ---------------------------
4 | ------------------------------------------------ ---------------------------
5 | --2 ---------------------------- 32 ---------------- --------------- 32 -------
6 | --0 --- 0 --- 0 --- 0 --- 0 --- 0 --- 0 ---- 1? --- 0 --- 0 --- 0 --- 0 --- 0 --- 0 --- 0 --- 1? -------

   E5 G5 E5 G5 E5 F # 5 G5 F # 5

    PM ---------------------- | PM ----------- |

1 | ------------------------------------------------ ---------------------------
2 | ------------------------------------------------ ---------------------------
3 | ------------------------------------------------ ---------------------------
4 | ------------------------------------------------ ---------------------------
5 | --------------------------------- 5 ------- 5 ------ -4 --- 5 --- 4 -----------------
6 | --0 --- 0 --- 0 --- 0 --- 0 --- 0 --- 0 ------ 3 --- 0 --- 3 --- 0-- -2 --- 3 --- 2 -----------------

Произнеси свои молитвы, малыш
Не забывай мой сын
Включить всех

(Повторите ритмическую сбивку 3 один раз)

Уложи тебя, тепло внутри
Держи тебя свободным от греха
Пока не придет песочный человек

Мост:
=======

                          F # 5 E5 F5 F # 5

                           PM -------------------------- |

1 | --------------------- | -------------------------- ---------------------------
2 | --------------------- | -------------------------- ---------------------------
3 | --------- 2 ----------- | -------------------------- ---------------------------
4 | ----- 4 --------------- | -------------------------- ---------------------------
5 | ------------- 3 --- 2 --- | --- 4 --- 4 --- 4 --- 4 --- 4 --- 2-- -3 --- 4 ---------------------
6 | --2 ------------------ | --- 2 --- 2 --- 2 --- 2 --- 2 --- 0-- -1 --- 2 ---------------------

    | ------ 3x ------ |

Чутко спать
Крепко сжимая подушку

Заливка хоруса:
============

  F # 5 C5 B5 F # 5 C5 B5 F # 5 C5 B5 E5

                                                 PM ----------- |

1 | ------------------------------------------------ ---------------------------
2 | ------------------------------------------------ ---------------------------
3 | ------------------------------------------------ ---------------- 2 ----------
4 | ------ 5 --- 4 --------- 5 --- 4 --------- 5 --- 4 --------- 5 --- 2 --- 5 --- 2 ------- 2 ------
5 | --4 --- 3 --- 2 ----- 4 --- 3 --- 2 ----- 4 --- 3 --- 2 ---- 2 ---- ---------------------------
6 | --2 ------------- 2 ------------- 2 ------------ 0 ---- ---------------------------

Выходной свет
Введите ночь

  F # 5 C5 B5 E5 G5 F5 G5

                      PM ---------- | PM ---------- |

1 | ------------------------------------------------ ---------------------------
2 | ------------------------------------------------ ---------------------------
3 | ------------------------------------ 2 ----------- ---------------------------
4 | ------ 5 --- 4 --------- 5 --- 2 --- 5 --- 2 ------- 2 ------- ---------------------------
5 | --4 --- 3 --- 2 ----- 2 ---------------------------- 5-- ----- 5 ------- 4 --- 5 --- 5 -----
6 | --2 ------------- 0 ---------------------------- 3-- -0 --- 3 --- 0 --- 2 --- 3 --- 3 -----

Возьми мою руку
Мы никогда не приземляемся

(Повторите ритмическую сбивку 2 дважды)

Что-то не так, выключите свет
Тяжелые мысли сегодня вечером
И они не из Белоснежки
Мечты о войне, мечты о лжи
Сны о драконьем огне
И о вещах, которые могут укусить, да!

(Повторить мост)

Чутко спать
Крепко сжимая подушку

(Повторить заполнение хором)

Выходной свет
Введите ночь
Возьми мою руку
Откуда никогда-никогда не приземляться

(Повторите ритмическую сбивку 2 дважды)
(Повторить мост)
(Повторить заполнение хором)
(Повторите вступление 8 раз)

Теперь я ложусь спать
Молитесь Господу, чтобы моя душа сохранила
Если я умру до того, как проснусь
Прошу Господа мою душу взять

(Повторить мост, только 1-й такт, 6 раз)

Тише, малыш, не говори ни слова
И не обращайте внимания на тот шум, который вы слышали
Это просто звери под твоей кроватью,
В твоем туалете, в твоей голове

(Повторите заполнение хором дважды)

Выходной свет
Введите ночь
Возьми мою руку
Откуда никогда-никогда не приземляться

(Повторите ритмическую сбивку 2 дважды)

БУМ!

(Повторите ритмическую сбивку 2 4 раза)

Заключение:
======

   E5 F5 E5 F5 E5

        PM PM-- | P PM --------------------- | п

1 | ------------------------------------------------ ---------------------------
2 | ------------------------------------------------ ---------------------------
3 | ------------------------------------------------ ---------------------------
4 | ------------------------------------------------ ---------------------------
5 | --2 ------- 7 ------------------- 32 ----------- 7 ----- ------------- 32 ---------
6 | --0 --- 0 ------- 6 --- 5 --- 0 --- 0 --- 1? --- 0 --- 0 ------ 6- --5 --- 0 --- 0 --- 1? ---------

                                      | ------------- 3x ------------- |

                              F5 E5

    PM-- | PM ------ | P PM -------------------------- |
1 | ------------------------------------------------ ---------------------------
2 | ------------------------------------------------ ---------------------------
3 | ------------------------------------------------ ---------------------------
4 | ------------------------------------------------ ---------------------------
5 | ---------- 7 ------------------ 32 ------------- 7 ---- -------------------------
6 | --0 --- 0 ------ 6 --- 0 --- 0 --- 0 --- 1? ----- 0 --- 0 ------- 0 --- 0 --- 0 --- 0 --- 0 ---------

    | ------------ 4x -------------- | | ------------ 4x ------------- |

    PM ------------------------------ |

1 | ------------------------------------------------ ---------------------------
2 | ------------------------------------------------ ---------------------------
3 | ------------------------------------------------ ---------------------------
4 | ------------------------------------------------ ---------------------------
5 | ------------------------------------------------ ---------------------------
6 | --0 --- 0 --- 0 --- 0 --- 0 --- 0 --- 0 --- 0 --- 0 ------------- ---------------------------

    | --- Повторять при постепенном исчезновении --- | 

Пожалуйста, оставьте свои комментарии ниже! - Найдите больше простых гитарных песен для игры на GearVault.

Metallica> Табулатуры (gp3 - gp4 - gp5 - txt) вкладки

зонаметалл > табулатуры> Metallica

01- Поезд ненависти
02- Просто пуля
03- Ад и обратно
04 - Мятежник Вавилона

вкладки Death Magnetic


альбом: Death Magnetic
группа: Metallica
вылет: 2008

+ вкладки с информацией


нажмите на альбом для печати табулатур
gp5 - gp4 - gp3 - txt

01- Это была твоя жизнь
02- Конец линии
03- Сломанный, избитый и израненный
04- День, который никогда не наступит (
) 05- Все кошмары долго
06- Цианид
07- Непрощенный III
08- Поцелуй Иуды
09- Самоубийство и искупление
10- Мой Апокалипсис

вкладки St.Злость


альбом: St. Anger
группа: Metallica
вылет: 2003

+ вкладки с информацией


нажмите на альбом для печати табулатур
gp5 - gp4 - gp3 - txt

01- Frantic
02- St. Anger
03- Some Kind Of Monster
04- Dirty Window
05- Invisible Kid
06- My World
07- Shoot Me Again
08- Sweet Amber
09- Безымянное чувство
10 - Очистить
11- Все в моих руках

вкладки S&M


альбом: S&M
группа: Metallica
вылет: 1999

+ вкладки с информацией


нажмите на альбом для печати табулатур
gp5 - gp4 - gp3 - txt

08- Безлистный клевер
15- Минус человек

вкладки Garage inc.


альбом: Garage inc. Группа
: Metallica
вылет: 1998

+ вкладки с информацией


нажмите на альбом для печати табулатур
gp5 - gp4 - gp3 - txt

- DISQUE I -

01- Свобода слова для немых
02- Это электрическое
03- Sabbra Cadabra
04- Turn the Page
05- Die, Die My Darling
06- Loverman
07- Mercyful Fate
08- Астрономия
09- Виски в банке
10- Вторник ушел
11- Чем больше я вижу

- DISQUE II -

01- Беспомощный
02- Маленькие часы
03- Ожидание
04 - Ускоренный курс по хирургии головного мозга
05- Последняя ласка / Зеленый ад
06- Я злой?
07- Blitzkrieg
08- Breadfan
09- The Prince
10- Stone Cold Crazy
11- So What
12- Killing Time
13- Overkill
14- Damage Case
15- Stone Dead Forever
16- Слишком поздно Конец

вкладки Обновить


альбом: Reload
группа: Metallica
вылет: 1997

+ вкладки с информацией


нажмите на альбом для печати табулатур
gp5 - gp4 - gp3 - txt

01- Топливо
02- Остается память
03- Танец дьявола
04- Непрощенный II
05- Лучше, чем ты
06- Скользящий
07- Carpe Diem Baby
08- Плохое семя
09- Где дикие твари
10- Прекрасный принц
11- Лирик низкого человека
12- Отношение
13- Fixxxer

вкладки Загрузить


альбом: Load
группа: Metallica
вылет: 1996

+ вкладки с информацией


нажмите на альбом для печати табулатур
gp5 - gp4 - gp3 - txt

01- Ain't My Bitch
02- 2 x 4
03- Дом, построенный Джеком
04- Пока он не спит
05- Ничего не король
06- Герой дня
07- Bleeding Me
08- Cure
09- Бедный Twisted Me
10- Тратить мою ненависть
11- Mama Said
12- The Thorn Within
13- Ronnie
14- The Outlaw Torn

вкладки Черный альбом


Альбом: Black Album
группа: Metallica
вылет: 1991

+ вкладки с информацией


нажмите на альбом для печати табулатур
gp5 - gp4 - gp3 - txt

01- Войдите Sandman
02- Печальный, но правдивый
03- Святее, чем ты
04- Непрощенный
05- Куда бы я ни бродил
06- Не наступай на меня
07- Сквозь никогда
08- Ничего другого не имеет значения
09- Волка и человека
10- Бог, который потерпел неудачу
11- Мой друг страдания
12- Борьба внутри
01- Черненое
02-...И справедливость для всех
03- Глаз смотрящего
04- Один
05- Самая короткая соломинка
06- Жнец печали
07- Потрепанные концы здравомыслия
08- Жить - значит умереть
09- Канун красильщика

вкладки Master Of Puppets


Альбом: Master Of Puppets
группа: Metallica
вылет: 1986

+ вкладки с информацией


нажмите на альбом для печати табулатур
gp5 - gp4 - gp3 - txt

01- Батарея
02- Мастер марионеток
03- То, чего не должно быть
04- Добро пожаловать домой (санаторий)
05- Одноразовые герои
06- Leper Messiah
07- Орион
08- Damage, Inc.

вкладки Ride The Lightning


альбом: Ride The Lightning
группа: Metallica
вылет: 1984

+ вкладки с информацией


нажмите на альбом для печати табулатур
gp5 - gp4 - gp3 - txt

01- Борьба с огнем с помощью огня
02- Оседлайте молнию
03- По ком звонит колокол
04- Fade To Black
05- Ловушка подо льдом
06- Побег
07- Ползучая смерть
08- Зов Ктулу

вкладки Kill'Em All


Альбом: Kill'Em All
группа: Metallica
вылет: 1983

+ вкладки с информацией


нажмите на альбом для печати табулатур
gp5 - gp4 - gp3 - txt

01- Попади в огни
02- Четыре всадника
03- Моторное дыхание
04- Прыгай в огонь
05- (Анестезия) - Выдергивай зубы
06- Хлыст
07- Призрачный лорд
08- Нет раскаяния
09- Искать И уничтожить
10- Металлическое ополчение
NOUVEAUTÉS

________________

РЕШЕРШ

.

Добавить комментарий

Ваш адрес email не будет опубликован. Обязательные поля помечены *